Song name
# A B C D E F G H I J K L M N O P Q R S T U V W X Y Z

3 - Alien Angel tab

  	 Alien Angel Intro Tab by 3

H-Hammer on
P-Pull Off
S-Slide
~-Vibrato
*-Pinch Harmonic

Drop-D Tuning


Joey's Part

------------------------------------------------------------l
------------------------------------------------------------l
------------------------------------------------------------l
-----------------------------------------------------x----x-l   
-------------------------------------0h6p5p0h6~-----x----x--l
0h1p0-0-0h3/6-p0-0h6--------0h1p0-0-0--------------x----x---l

Billy's Part (standard tuning)

------------------------------------------------------------l
------------------------------------------------------------l
---------------------------------8-7---8*-------------------l
-0-1-0---0-0-3-6-0-6~--0-1-0-0-7-----7----------------------l
------------------------------------------------------------l
------------------------------------------------------------l

When it kicks in this is what Joey plays
------------------------------------------------------------l
------------------------------------------------------------l
------------------------------------------------------------l
0-1-0-0-0-3-6-0-6----------0-1-0-0--------------------------l   
0-1-0-0-0-3-6-0-6----------0-1-0-0--0-6-5-0-6*--------------l
0-1-0-0-0-3-6-0-6----------0-1-0-0--------------------------l
Tap to rate this tab
 
# A B C D E F G H I J K L M N O P Q R S T U V W X Y Z