Guitaretab - guitar tabs
Song name
# A B C D E F G H I J K L M N O P Q R S T U V W X Y Z

30 Seconds To Mars - Occams Razor tab

Tuning: DADGBE

Intro (Lead)
|--------------------------------------------|
|--------------------------------------------|
|--12-------14-----15-----10-------7---------|
|---X-X16----X-X8---X-X8---X-X16---X-X16-----|
|--10-------12-----13------8-------5---------|
|--------------------------------------------|

Intro (Rhythm)
|-------------------------------|
|-------------------------------|
|-------------------------------|
|-5--------1------7-------------|
|-5-X32----1X16---7-X16---------|
|-5--------1------7-------------|

Verse (one guitar)
|-------------------------------|
|-------------------------------|
|-8-------7------8-------15-----|
|-X-X12---X-X4---X-X12----XX4--|
|-6-------5------6-------13-----|
|-------------------------------|
[ Tab from: http://www.guitaretab.com/numeric/30-seconds-to-mars/116083.html ]
Chorus (Lead)
|--------------------------------------------|
|--------------------------------------------|
|--12-------14-----15-----10-------7---------|
|---X-X16----X-X8---X-X8---X-X16---X-X16-----|
|--10-------12-----13------8-------5---------|
|--------------------------------------------|

Chorus (Rhythm)
|--------------------------------------------|
|--------------------------------------------|
|--------------------------------------------|
|-5-------7------8------3-------0------------|
|-5-X16---7-X8---8-X8---3-X16---0-X16--------|
|-5-------7------8------3-------0------------|

Bridge (one guitar)
|------------|         |----------------------|
|------------|         |----------------------|
|------------|         |----------------------|
|-5----------| X4 then |-5-------8------------| X4
|-5-X11------|         |-5-X10---X-X2---------|
|-5----------|         |-5-------6------------|

End on
|----------------------|
|----------------------|
|----------------------|
|-5-------8--7---------|
|-5-X10---X--X---------|
|-5-------6--5---------|

Its really easy to figure out the order for this song.  Im not expecting a lot of 
2 know this song coz its pretty hard to get, but all those 30 STM lovers out there should 
grateful :D
Related for Occams Razor tab