Song name
# A B C D E F G H I J K L M N O P Q R S T U V W X Y Z

30 Seconds To Mars - Was It A Dream Acoustic tab

Standard tuning... i think this is the correct tab

e|-----------------|-----------------|-----------------|-----------------|
b|-----------------|-----------------|-----------------|-----------------|
g|---------0-------|-----------------|---------0-------|-----------------|
d|-----4-------4---|-----5------5----|-----4-------4---|-----5--------7--|
a|-2-2---2---2---2-|-3-3----3-3---3--|-2-2---2---2---2-|-3-3----3-5-5---5|
E|-----------------|-----------------|-----------------|-----------------|

e|-----------------|-----------------|-----------------|-----------------|
b|-----------------|-----------------|-----------------|-----------------|
g|---------0-------|-----------------|-----------------|-----------------|
d|-----4-------4---|-----5------5----|-----7------7----|-----9------9---9|
a|-2-2---2---2---2-|-3-3----3-3---3--|-5-5---5-5----5--|-7-7----7-7---77-|
E|-----------------|-----------------|-----------------|-----------------|
Tap to rate this tab
 
# A B C D E F G H I J K L M N O P Q R S T U V W X Y Z