Song name
# A B C D E F G H I J K L M N O P Q R S T U V W X Y Z

30 Seconds To Mars - Oblivion tab

Help us improve GuitareTab! Take a short survey!
Tabbed by:safeer(guiitarhead)
Email:safeer_islam10@hotmail.com
my first tab guys so keep it easy on the comments.i figured the song out and try to ring
of the chords or strings....hope its good for you.Its mostly the same chords just
differently at different times.

intro
 repeat as much time as needed
e|------9-~----9--~---9--~--9-----------------------------------------------|
B|------10-~---9-~----9-~---9-----------------------------------------------|
G|------12--~--9-~~---7--~--9-----------------------------------------------|
D|------9-~----9-~~---7-~---9-----------------------------------------------|
A|--------------------------------------------------------------------------|
E|--------------------------------------------------------------------------|
play this while vocaling
e|-1-------9----9----9----9--------------------------------------------------|
B|-3-x12---10---9----9----9--------------------------------------------------|
G|-3-------12---9----7----9--------------------------------------------------|
D|---------9----9----7----9--------------------------------------------------|
A|---------------------------------------------------------------------------|
E|---------------------------------------------------------------------------|
pre-chorus
e|--9---9------9------9-----8---8---9------9-----8---------------------------|
B|--9x6-10x3---9-x6---9-x3--8x6-8x3-9x6----9-x3--8x6-------------------------|
G|--9---12-----7------9-----6---8---9------11----6---------------------------|
D|--9---9------7------9-----6---8---9------11----6---------------------------|
A|---------------------------------------------------------------------------|
E|---------------------------------------------------------------------------|
chorus
e|--7-/5----5---7/9----------------------------------------------------------|
B|--9-/7----7---9/11--repeat when needed-------------------------------------|
G|--9-/7----7---9/11---------------------------------------------------------|
D|---------------------------------------------------------------------------|
A|---------------------------------------------------------------------------|
E|---------------------------------------------------------------------------|

repeat when the song repeats and your done!!pls mail if wrong in any parts.


| /  slide up
| \  slide down
| h  hammer-on
| p  pull-off
| ~  vibrato
| +  harmonic
| x  Mute note
===============================================================================
Related for Oblivion tab