Song name
# A B C D E F G H I J K L M N O P Q R S T U V W X Y Z

30 Seconds To Mars - Story tab

I'm pretty sure this is right....there may be some small mistakes though but you should 
able to get the nub of it!

e|--------------------------------------|
b|--------------------------------------|
g|--------------------------------------|
d|-----6-------8-------3-----1---3------|
a|-4-4---4-6-6---0-1-1---1-1---1--------|
e|--------------------------------------|

e|--------------------------------------|
b|--------------------------------------|
g|--------------------------------------|
d|-----6-------8-------3-------3-1------|
a|-4-4---4-6-6---0-1-1---1-1-1----------|
e|--------------------------------------|
                                     (x5)


e|----------------------------------------------------------|
b|----------------------------------------------------------|
g|----------------------------------------------------------|
d|-11-11-11-11-11-11-11-11-10-10-10-10-10-10-10-10-10-10-10-|
a|-9--9--9--9--9--9--9--9---9--9--9--9--9--9--9--9--9--9--9-|
e|----------------------------------------------------------|

--

e|--------------------------------------|
b|--------------------------------------|
g|--------------------------------------|
d|-----6-------8-------3------1---3-----|
a|-4-4---4-6-6---0-1-1---1-1----1-------|
e|--------------------------------------|

e|--------------------------------------|
b|--------------------------------------|
g|--------------------------------------|
d|-----6-------8-------3-------3-1------|
a|-4-4---4-6-6---0-1-1---1-1-1----------|
e|--------------------------------------|
                                     (x4)

e|--------------------------------------|
b|--------------------------------------|
g|--------------------------------------|
d|-3-3-3-3-3-3-3-0----------------------|
a|-1-1-1-1-1-1-1-0----------------------|
e|---------------0----------------------|

--

e|--------------------------------------|
b|--------------------------------------|
g|--------------------------------------|
d|-----3-------3-------6-------6--------|
a|--------------------------------------|
e|-1-1---1-1-1---1-4-4---4-4-4----------|

e|--------------------------------------|
b|--------------------------------------|
g|--------------------------------------|
d|-------10-------10-------8-------8----|
a|--------------------------------------|
e|-4-8-8----8-8-8----8-6-6---6-6-6---0--|


e|--------------------------------------|
b|--------------------------------------|
g|--------------------------------------|
d|-----3-------3-------6-------6--------|
a|--------------------------------------|
e|-1-1---1-1-1---1-4-4---4-4-4----------|

e|--------------------------------------|
b|--------------------------------------| here the 10 is actually higher but
g|--------------------------------------| i couldn't work it out i reckon
d|-------10-------10-------8-------8----| it might be 12
a|--------------------------------------|
e|-4-8-8----8-8-8----8-6-6---6-6-6---0--|
                                     (x2)

e|--------------------------------------|
b|--------------------------------------|
g|--------------------------------------|
d|-----3-------3-------6-------6--------|
a|--------------------------------------|
e|-1-1---1-1-1---1-4-4---4-4-4----------|


e|--------------------------------------|
b|--------------------------------------| the same here but only on the
g|--------------------------------------| 2nd 10. Apart from this pretty
d|-------10-------10-------8------------| sure everything else is right
a|--------------------------------------|
e|-4-8-8----8-8-8----8-6-6--------------|

--

e|--------------------------------------|
b|--------------------------------------|
g|--------------------------------------|
d|-----6-------8-------3------1---3-----|
a|-4-4---4-6-6---0-1-1---1-1----1-------|
e|--------------------------------------|

e|--------------------------------------|
b|--------------------------------------|
g|--------------------------------------|
d|-----6-------8-------3-------3-1------|
a|-4-4---4-6-6---0-1-1---1-1-1----------|
e|--------------------------------------|
                                     (x4)

e|--------------------------------------|
b|--------------------------------------|
g|--------------------------------------|
d|-----6-------8-------3------1---3-----|
a|-4-4---4-6-6---0-1-1---1-1----1-------|
e|--------------------------------------|


e|--------------------------|
b|--------------------------|
g|--------------------------|
d|-6--8--1------------------|
a|-4--6--3------------------|
e|--------------------------|

overall like i said it's pretty correct so you should get the nub of it!
Tap to rate this tab
 
# A B C D E F G H I J K L M N O P Q R S T U V W X Y Z