Song name
# A B C D E F G H I J K L M N O P Q R S T U V W X Y Z

30 Seconds To Mars - Kings And Queens tab

************************
*   Kings and Queens   *
*  30 Seconds to Mars  *
************************


*Chorus (Rhythm)*

"Aah,       Ahh,     Ahh... "
e------------------------------------|-------------------------------------|
b------------------------------------|-------------------------------------|
g------------------------------------|-------------------------------------|
d-11111111-33333333-6666666666666666-|-11111111-33333333-66666666-88888888-|  x2
a-11111111-33333333-6666666666666666-|-11111111-33333333-66666666-88888888-|
d-11111111-33333333-6666666666666666-|-11111111-33333333-66666666-88888888-|

*Verse*

"Into the night... "	           "Desperate & broken..." 
e|-------------------------------------------------------------------------|
b|--------8~~~~~~--------------------------6~~~~~~-------------------------|
g|--------8~~~~~~--------------------------6~~~~~~-------------------------|
d|--------8~~~~~~--------------------------6~~~~~~-------------------------|
a|--------8~~~~~~--------------------------6~~~~~~-------------------------|
d|-------------------------------------------------------------------------|

"The Sound of a fight... "	         "Father hath spoken..." 
e|-------------------------------------------------------------------------|
b|--------8~~~~~~--------------------------6~~~~~~-------------------------|
g|--------8~~~~~~--------------------------6~~~~~~-------------------------|
d|--------8~~~~~~--------------------------6~~~~~~--------------6-6-6------|
a|--------8~~~~~~--------------------------6~~~~~~--------------6-6-6------|
d|--------------------------------------------------------------6-6-6------|

*Pre-chorus*

"Aaahh.. "
e----11----------|----11----------|----11----------|----11----------|
b-------11--8-9--|-------11--8-9--|-------11--8-9--|-------11--8-9--|
g----------------|----------------|----------------|----------------| x2 
d----------------|----------------|----------------|----------------|
a----------------|----------------|----------------|----------------|
d----------------|----------------|----------------|----------------|

"We where the Kings & Queens of Promise..." 
e------------------------------------|-------------------------------------|
b------------------------------------|-------------------------------------|
g------------------------------------|-------------------------------------|
d-11111111-33333333-6666666666666666-|-11111111-33333333-66666666-88888888-|  x2
a-11111111-33333333-6666666666666666-|-11111111-33333333-66666666-88888888-|
d-11111111-33333333-6666666666666666-|-11111111-33333333-66666666-88888888-|

*Riff*
e-------------------|-------------------|-------------------|-----------------|
b-9---8---11---8----|-9---8---11---8----|-9---8---11---8----|--9---8---6---8--|
g---8---8----8---8--|---8---8----8---8--|---8---8----8---8--|----8---8---8----|
d-------------------|-------------------|-------------------|-----------------| x2
a-------------------|-------------------|-------------------|-----------------|
d-------------------|-------------------|-------------------|-----------------|

*Verse 2*

"Into your eyes               hopeless and taken..." 
e--------------------11~-----------------9~-----------------------------------|
b------------9---9-8-----------------------------11~---------------9~---------| 
g----------8---8--------------------------------------------------------------| 
d-----------------------------------------------------------------------------| 
a-----------------------------------------------------------------------------|
d-----------------------------------------------------------------------------|

"We stole our new lifes			through blood and pain"
e--------------------11~-----------------9~-----------------------------------|
b------------9---9-8-----------------------------11~---------------9~---------| 
g----------8---8--------------------------------------------------------------| 
d-----------------------------------------------------------------------------| 
a-----------------------------------------------------------------------------|
d-----------------------------------------------------------------------------|


"In defense           of our dreams"
e-------------------|-------------------|-------------------|-----------------|
b-9---8---11---8----|-9---8---11---8----|-9---8---11---8----|--9---8---6---8--|
g---8---8----8---8--|---8---8----8---8--|---8---8----8---8--|----8---8---8----|
d-------------------|-------------------|-------------------|-----------------|
a-------------------|-------------------|-------------------|-----------------|
d-------------------|-------------------|-------------------|-----------------|

"Empty friends of our own dreams"
e-------------------|-------------------|-------------------|-----------------|
b-9---8---11---8----|-9---8---11---8----|-9---8---11---8----|--9---8---6---8--|
g---8---8----8---8--|---8---8----8---8--|---8---8----8---8--|----8---8---8----|
d-------------------|-------------------|-------------------|-----------------|
a-------------------|-------------------|-------------------|-----------------|
d-------------------|-------------------|-------------------|-----------------|

*Chorus*

"We where the Kings & Queens of Promise..." 
e------------------------------------|-------------------------------------|
b------------------------------------|-------------------------------------|
g------------------------------------|-------------------------------------|
d-11111111-33333333-6666666666666666-|-11111111-33333333-66666666-88888888-|  x2
a-11111111-33333333-6666666666666666-|-11111111-33333333-66666666-88888888-|
d-11111111-33333333-6666666666666666-|-11111111-33333333-66666666-88888888-|

*small little riff*
e--------------|
b-888-999-1111-|
g--------------|
d--------------|
a--------------|
d--------------|

"The Age of men is over..." (guitar fades in at this part)
e-------------------|-------------------|-------------------|-----------------|
b-9---8---11---8----|-9---8---11---8----|-9---8---11---8----|--9---8---6---8--|
g---8---8----8---8--|---8---8----8---8--|---8---8----8---8--|----8---8---8----|
d-------------------|-------------------|-------------------|-----------------|  x4
a-------------------|-------------------|-------------------|-----------------|
d-------------------|-------------------|-------------------|-----------------|

*Chorus*

"We where the Kings & Queens of Promise..." 
e------------------------------------|-------------------------------------|
b------------------------------------|-------------------------------------|
g------------------------------------|-------------------------------------|
d-11111111-33333333-6666666666666666-|-11111111-33333333-66666666-88888888-|  x2
a-11111111-33333333-6666666666666666-|-11111111-33333333-66666666-88888888-|
d-11111111-33333333-6666666666666666-|-11111111-33333333-66666666-88888888-|

*Outro*

"We are the kings~~~~~~~"
e--------------------------------------------------------------------------|
b--------------------------------------------------------------------------|
g-8/10--10-10-10/12--12-12-12/13--13-13-13/15-15-15-15-15-15-15-15-15-15---|
d-x/-x---x--x--x/-x---x--x--x/-x---x--x--x/-x--x--x--x--x--x--x--x--x--x---|  x3
a-6/-8---8--8--8/10--10-10-10/11--11-11-11/13-13-13-13-13-13-13-13-13-13---|
d--------------------------------------------------------------------------|

"We are the queens~~~~~~~"
e--------------------------------------------------------------------------|
b--------------------------------------------------------------------------|
g-8/10--10-10-10/12--12-12-12/13--13-13-13/20-20-20-20-20-20-20-20-20-20---|
d-x/-x---x--x--x/-x---x--x--x/-x---x--x--x/-x--x--x--x--x--x--x--x--x--x---|
a-6/-8---8--8--8/10--10-10-10/11--11-11-11/18-18-18-18-18-18-18-18-18-18---|
d--------------------------------------------------------------------------|

"Aaaah...    Aaaah...    Aaaah...    "
  
Tap to rate this tab
# A B C D E F G H I J K L M N O P Q R S T U V W X Y Z