Song name
# A B C D E F G H I J K L M N O P Q R S T U V W X Y Z

30 Seconds To Mars - 100 Suns tab

Possibly the best album Ive ever bought...

This Is War Is amazing!!!  100 Suns is a very simple song to sing and play, but is 
emotive and has a great impact with the people from the public recording backing it.

Hope you like my tab.  Didn't take long however once again fun to play and sing =]

You Know Youve Got It Coming... This Is War  ₪    lll  o.

Acoustic Guitar
e|----------------------------------------------------|
B|----------------------------------------------------|
G|--------6--------8--------11------------------------|
D|--4-----6-X8-----8-X8-----11-X8---------------------|
A|--4-X8--4--------6--------9-------------------------|
E|--2-------------------------------------------------|


e|----------------------------------------------------|
B|----------------------------------------------------|
G|--------6--------8----------------------------------|
D|--4-----6-X8-----8-X8-----6--------8----------------|
A|--4-X8--4--------6--------6-X4-----8-X4-------------|
E|--2-----------------------4--------6----------------|

Repeat that over the whole song =]

Enjoy the album if your smart enough to have bought it =]

Provehito In Altum
Tap to rate this tab
# A B C D E F G H I J K L M N O P Q R S T U V W X Y Z