Song name
# A B C D E F G H I J K L M N O P Q R S T U V W X Y Z

30 Seconds To Mars - 100 Suns chords

30 Seconds to Mars
100 Suns
album: This is War
tabbed by ambient203

Tuning: Standard

x = muted strings


This is an amazing song by a truly amazing band. I tried to space out the lyrics to fit
guitar as much as possible so you can sing while you play. Also, if you're playing
a pick, you can recreate the high C# at the very start by plucking the 2nd fret of the B 
while you start strumming with your thumb.


e|----------------------------------------------------------------------------|
B|----------------------------------------------------------------------------|
G|-------------------6-6-6-6-6-6-6-6--8-8-8-8-8-8-8-8--11-11-11-11-11-11-11-6-|
D|--4-4-4-4-4-4-4-4--6-6-6-6-6-6-6-6--8-8-8-8-8-8-8-8--11-11-11-11-11-11-11-6-|
A|--4-4-4-4-4-4-4-4--4-4-4-4-4-4-4-4--6-6-6-6-6-6-6-6--9--9--9--9--9--9--9--4-|
E|--2-2-2-2-2-2-2-2-----------------------------------------------------------|

    I   believe in   nothing, not the end and not the  start

e|----------------------------------------------------------------------------|
B|----------------------------------------------------------------------------|
G|-------------------6-6-6-6-6-6-6-6--8-8-8-8-8-8-8-8-------------------------|
D|--4-4-4-4-4-4-4-4--6-6-6-6-6-6-6-6--8-8-8-8-8-8-8-8--6-6-6-6x-8-------------|
A|--4-4-4-4-4-4-4-4--4-4-4-4-4-4-4-4--6-6-6-6-6-6-6-6--6-6-6-6x-8-------------|
E|--2-2-2-2-2-2-2-2------------------------------------4-4-4-4x-6-------------|

    I   believe in   nothing, not the Earth and not the stars

e|----------------------------------------------------------------------------|
B|----------------------------------------------------------------------------|
G|-------------------6-6-6-6-6-6-6-6--8-8-8-8-8-8-8-8--11-11-11-11-11-11-11-6-|
D|--4-4-4-4-4-4-4-4--6-6-6-6-6-6-6-6--8-8-8-8-8-8-8-8--11-11-11-11-11-11-11-6-|
A|--4-4-4-4-4-4-4-4--4-4-4-4-4-4-4-4--6-6-6-6-6-6-6-6--9--9--9--9--9--9--9--4-|
E|--2-2-2-2-2-2-2-2-----------------------------------------------------------|

    I   believe in   nothing, not the day and not the dark

e|----------------------------------------------------------------------------|
B|----------------------------------------------------------------------------|
G|-------------------6-6-6-6-6-6-6-6--8-8-8-8-8-8-8-8-----------------6-------|
D|--4-4-4-4-4-4-4-4--6-6-6-6-6-6-6-6--8-8-8-8-8-8-8-8--6-6-6-6x-8-8-8-6-------|
A|--4-4-4-4-4-4-4-4--4-4-4-4-4-4-4-4--6-6-6-6-6-6-6-6--6-6-6-6x-8-8-8-4-------|
E|--2-2-2-2-2-2-2-2------------------------------------4-4-4-4x-6-6-6---------|

    I   believe in   nothing, but the beating of our hearts

e|----------------------------------------------------------------------------|
B|----------------------------------------------------------------------------|
G|-------------------6-6-6-6-6-6-6-6--8-8-8-8-8-8-8-8--11-11-11-11-11-11-11-6-|
D|--4-4-4-4-4-4-4-4--6-6-6-6-6-6-6-6--8-8-8-8-8-8-8-8--11-11-11-11-11-11-11-6-|
A|--4-4-4-4-4-4-4-4--4-4-4-4-4-4-4-4--6-6-6-6-6-6-6-6--9--9--9--9--9--9--9--4-|
E|--2-2-2-2-2-2-2-2-----------------------------------------------------------|

    I   believe in   nothing,  100    suns  until we part

e|----------------------------------------------------------------------------|
B|----------------------------------------------------------------------------|
G|-------------------6-6-6-6-6-6-6-6--8-8-8-8-8-8-8-8-------------------------|
D|--4-4-4-4-4-4-4-4--6-6-6-6-6-6-6-6--8-8-8-8-8-8-8-8--6-6-6-6x-8-------------|
A|--4-4-4-4-4-4-4-4--4-4-4-4-4-4-4-4--6-6-6-6-6-6-6-6--6-6-6-6x-8-------------|
E|--2-2-2-2-2-2-2-2------------------------------------4-4-4-4x-6-------------|

    I   believe  in  nothing,  not in sin  and not in God

e|----------------------------------------------------------------------------|
B|----------------------------------------------------------------------------|
G|-------------------6-6-6-6-6-6-6-6--8-8-8-8-8-8-8-8--11-11-11-11-11-11-11-6-|
D|--4-4-4-4-4-4-4-4--6-6-6-6-6-6-6-6--8-8-8-8-8-8-8-8--11-11-11-11-11-11-11-6-|
A|--4-4-4-4-4-4-4-4--4-4-4-4-4-4-4-4--6-6-6-6-6-6-6-6--9--9--9--9--9--9--9--4-|
E|--2-2-2-2-2-2-2-2-----------------------------------------------------------|

    I   believe  in  nothing,  not in peace and not in war

e|----------------------------------------------------------------------------|
B|----------------------------------------------------------------------------|
G|-------------------6-6-6-6-6-6-6-6--8-8-8-8-8-8-8-8-----------------6-------|
D|--4-4-4-4-4-4-4-4--6-6-6-6-6-6-6-6--8-8-8-8-8-8-8-8--6-6-6-6x-8-8-8-6-------|
A|--4-4-4-4-4-4-4-4--4-4-4-4-4-4-4-4--6-6-6-6-6-6-6-6--6-6-6-6x-8-8-8-4-------|
E|--2-2-2-2-2-2-2-2------------------------------------4-4-4-4x-6-6-6---------|


    I   believe  in  nothing, but the truth  in who we are

e|----------------------------------------------------------------------------|
B|----------------------------------------------------------------------------|
G|-------------------6-6-6-6-6-6-6-6--8-8-8-8-8-8-8-8--11-11-11-11-11-11-11-6-|
D|--4-4-4-4-4-4-4-4--6-6-6-6-6-6-6-6--8-8-8-8-8-8-8-8--11-11-11-11-11-11-11-6-|
A|--4-4-4-4-4-4-4-4--4-4-4-4-4-4-4-4--6-6-6-6-6-6-6-6--9--9--9--9--9--9--9--4-|
E|--2-2-2-2-2-2-2-2-----------------------------------------------------------|

            Thank you guys!   (cheering and clapping)

e|------------------------------------|
B|------------------------------------|
G|-------------------6-6-6-6-6-6-6-6--|
D|--4-4-4-4-4-4-4-4--6-6-6-6-6-6-6-6--|
A|--4-4-4-4-4-4-4-4--4-4-4-4-4-4-4-4--|
E|--2-2-2-2-2-2-2-2-------------------|
                           ^ (fade out here)
Tap to rate this tab
# A B C D E F G H I J K L M N O P Q R S T U V W X Y Z