Song name
# A B C D E F G H I J K L M N O P Q R S T U V W X Y Z

30 Seconds To Mars - Hurricane chords

All i got is the intro, this is the main riff throughout the song though :)
enjoy


e |--------------------|
b |----2---2---2---2-4-|
g |---3---3---3---3----| X3
d |--3---3---3---3-----|
a |--------------------|
e |--------------------|


e |------------------1----|
b |----2---2---2---2---4-2|
g |---3---3---3---3-------| 
d |--3---3---3---3--------|
a |-----------------------|
e |-----------------------|
Tap to rate this tab
# A B C D E F G H I J K L M N O P Q R S T U V W X Y Z