Song name
# A B C D E F G H I J K L M N O P Q R S T U V W X Y Z

30 Seconds To Mars - Hurricane tab

----------------------------------------------------------------------------
			     Hurricane- 30 Seconds to Mars
----------------------------------------------------------------------------
Tabbed by:Deanguitars2
Email:deanguitars2@live.com

Tuning:1/2 Step down

Intro:

e|--------------------------------------------------------------------------|
B|--------------------------------------------------------------------------|
G|---(4)--------------------------------------------------------------------|
D|--------------------------------------------------------------------------|
A|--------------------------------------------------------------------------|
E|--------------------------------------------------------------------------|

Piano
e|----------------------------------------------------------------3-2-------|
B|0-2-3-0-2-3-0-2-3-0-2-3-0-2-3-5---x3- 0-2-3-0-2-3-0-2-3-0-2-3-0------5--3-|
G|--------------------------------------------------------------------------|
D|--------------------------------------------------------------------------|
A|--------------------------------------------------------------------------|
E|--------------------------------------------------------------------------|

Guitar I (Piano 2)
e|--------------------------------------------------------------------------|
B|---3-----------------------------------------------3----------------------|
G|---4-----------------------------------------------4----------------------|
D|--------------------------------------------------------------------------|
A|---2----------------------------------------------------------------------|
E|---------------------------------------------------3----------------------|


Verse 1: Same as Intro

Pre-Chorus
e|----------------------------------------------------------------------------|
B|----------------------------------------------------------------------------|
G|--2-------------------------------------------------------------------------|
D|--2-------4-----------------------------------------------------------------|
A|--0-------4-----------------------------------------------------------------|
E|----------2-----------------------------------------------------------------|
Chorus: contrnue with piano intro
e|--------------------------------------------------------------------------|
B|----3---------------3---x2------------------------------------------------|
G|----4-------2-------4-----------------------------------------------------|
D|------------2----------------------5----7-----9----(9)---x2---------------|
A|------------0-------2--------------5----7-----9----(9)--------------------|
E|----3------------------------------3----5-----7----(7)--------------------|


Verse 2: Same as First with piano still

Bridge 1: Same chords as verse but with Plucked harmonics

e|---------------------------------------------------------------------------|
B|---------------------------------------------(7)---------------------------|
G|--------------(7)-----------------(7)--------(5)---------------------------|
D|----------------------------------(7)--------------------------------------|
A|----(5)--------------------------------------------------------------------|
E|---------------------------------------------------------------------------|


Chorus

Bridge 2: Just Hold A#

Verse 3: Same Again

chorus x4.

Outro: Weird Syth Effects : Try Messing Around with Palm Mutes and Plucks

| /  slide up
| \  slide down
| h  hammer-on
| p  pull-off
| ~  vibrato
| () harmonic
| x  Mute note
===============================================================================
Tap to rate this tab
 
# A B C D E F G H I J K L M N O P Q R S T U V W X Y Z