Song name
# A B C D E F G H I J K L M N O P Q R S T U V W X Y Z

30 Seconds To Mars - Attack Acoustic tab

Mkays, first time I make tabs by text but shouldn't be a problem =)
I hope this helped!

So here we go!



//Verse1:


 G5
I won't



   G5                            F#5
 suffer, be broken  		Get tired, or wasted
 
e -3-3-3-3~3-3-3-3-3-3-3~3-3-3-|-2-3-2-3~3-2-3-2-3-2-5~5-2-3-|
H -----------------------------|-----------------------------|
G -----------------------------|-----------------------------|
D -----------------------------|-----------------------------|
A -----------------------------|-----------------------------|
E -----------------------------|-----------------------------|



    E5
Surrender to nothing		I'll give up what I

e ---3-3-3~3-3-3-3-3-3-3~3-3-3-|-3-3-3-3~3-3-3-3-3-3-3~3-3-3-|
H -----------------------------|-----------------------------|
G -----------------------------|-----------------------------|
D -----------------------------|-----------------------------|
A -----------------------------|-----------------------------|
E -----------------------------|-----------------------------|



   G5                            F#5
Started And stopped it		From end to beginning
   
e -3-3-3-3~3-3-3-3-3-3-3~3-3-3-|-2-3-2-3~3-2-3-2-3-2-5~5-2-3-|
H -----------------------------|-----------------------------|
G -----------------------------|-----------------------------|
D -----------------------------|-----------------------------|
A -----------------------------|-----------------------------|
E -----------------------------|-----------------------------|



   E5
A new day is coming		And I am finally free
   
e -0-2-0-7~7-0-7-0-7-0-7~7-0-7-|-----------------------------|
H -----------------------------|-----------------------------|
G -----------------------------|-----------------------------|
D -----------------------------|-----------------------------|
A -----------------------------|-----------------------------|
E -----------------------------|-----------------------------|


//Chorus:



   C5         D5
 Run away, Run away


   e5         H5
 I'll attack


   C5         D5
 Run away, Run away


   e5         H5
 Go change yourself


   C5         D5
 Run away, Run away, Now I'll


   e5         H5
 Attack



//Verse2:


   X
   I would've


   G5                            F#5
 kept you forever  		But we had to sever
 
e -3-3-3-3~3-3-3-3-3-3-3~3-3-3-|-2-3-2-3~3-2-3-2-3-2-5~5-2-3-|
H -----------------------------|-----------------------------|
G -----------------------------|-----------------------------|
D -----------------------------|-----------------------------|
A -----------------------------|-----------------------------|
E -----------------------------|-----------------------------|



    E5
 It ended for both of us	Faster than a

e ---3-3-3~3-3-3-3-3-3-3~3-3-3-|-3-3-3-3~3-3-3-3-3-3-3~3-3-3-|
H -----------------------------|-----------------------------|
G -----------------------------|-----------------------------|
D -----------------------------|-----------------------------|
A -----------------------------|-----------------------------|
E -----------------------------|-----------------------------|



   G5                            F#5
 kill fo this thinking		It's starting to sink in
   
e -3-3-3-3~3-3-3-3-3-3-3~3-3-3-|-2-3-2-3~3-2-3-2-3-2-5~5-2-3-|
H -----------------------------|-----------------------------|
G -----------------------------|-----------------------------|
D -----------------------------|-----------------------------|
A -----------------------------|-----------------------------|
E -----------------------------|-----------------------------|



   E5
 I'm losing control now		But without you I can finally say
   
e -0-2-0-7~7-0-7-0-7-0-7~7-0-7-|-0-7-0-7~7-0-7-0-7-0-7~7-0-7-|
H -----------------------------|-----------------------------|
G -----------------------------|-----------------------------|
D -----------------------------|-----------------------------|
A -----------------------------|-----------------------------|
E -----------------------------|-----------------------------|




//Chorus:



   C5         D5
 Run away, Run away


   e5         H5
 I'll attack


   C5         D5
 Run away, Run away


   e5         H5
 Go change yourself


   C5         D5
 Run away, Run away, Now I'll


   e5		H5
 Attack,  I'll attack



//Verse3


 G5                  F#5
Your promises, They look like lies

 E5
Your honesty Like a back that hides a knife

 G5                  H5
I promise you, I promise you

 E5
I am finally free




//Chorus:



   C5         D5
 Run away, Run away


   e5         H5
 I'll attack


   C5         D5
 Run away, Run away


   e5         H5
 Go change yourself


   C5         D5
 Run away, Run away, Now I'll


   e5         H5
 Attack, I'll attack


   C5         D5
 I'll attack, I'll attack

   e5         H5
 I'll attack, I'll attack

   C5         H5
 I will attack




//Outro:


 G5                   F#5
Your promises, they look like lies

 E5








//Made by ThisILuv, requests & comments to my email "liamtoh-@hotmail.com"
//Thanks :)
Tap to rate this tab
# A B C D E F G H I J K L M N O P Q R S T U V W X Y Z