Song name
# A B C D E F G H I J K L M N O P Q R S T U V W X Y Z

30 Seconds To Mars - Equinox tab

I saw there wasn't a tab for this so I took 5 minutes to tab it out. It's a simple song, 
it's a pretty cool sounding one too. Just repeat the riffs as long as you want. Tuning 
standard. This is my first tab, please rate!

Guitar 1
----------------------------------------|
----------------------------------------|
-4---4-5---2---2-4---4-5---5---5--------|
---2-----2---2-----2-----2---2----------|
----------------------------------------|
----------------------------------------|

Guitar 2
---------------------------------------|
------------------------3-----1--------|
--2-2-2-4-4-4-4-0-0-0-0---0-0---0------|
---------------------------------------|
---------------------------------------|
---------------------------------------|
Tap to rate this tab
# A B C D E F G H I J K L M N O P Q R S T U V W X Y Z