Song name
# A B C D E F G H I J K L M N O P Q R S T U V W X Y Z

30 Seconds To Mars - Vox Populi tab

Vox populi. 30seconds to mars
Intro
(clean) (sounds good with a phaser effect) (0:00-0:19)
e------------------) x12
B------------------)
G----------14------)
D-12-12-12---------)
A------------------)
E------------------)


(distorted)(sounds good with effect tremolo)(0:19-1:00)

e---------------------------) x3,then play the  tablature on the bottom once,
B---------------------------) keep on repeating this 28x,
G----------14-14-14-14-14---)
D-12-12-12------------------)
A---------------------------)
E---------------------------)

e------------------------------) 
B------------------------------)
G-----------14-12-12-12-12-----)
D-12-12-12---------------------)
A------------------------------)
E------------------------------)
Tap to rate this tab
# A B C D E F G H I J K L M N O P Q R S T U V W X Y Z