Song name
# A B C D E F G H I J K L M N O P Q R S T U V W X Y Z

30 Seconds To Mars - L490 tab

Note: There are 3 guitar parts. But only two will be going on at the same time. If you 
closely, the first guitar part fades into another guitar part (Guitar 3)

Guitar 1: Introduction

e|-----------------------------------------------------------------|
B|-----------------------------------------------------------------|
G|-4---4-5---2---2-4---4-5---5---5-4---4-5---2---2-4---4-5---5---5-|
D|---2-----2---2-----2-----2---2-----2-----2---2-----2-----2---2---|
A|-----------------------------------------------------------------|
E|-----------------------------------------------------------------|

Guitar 2: There are like, 4 ways to play this but I'll only do 3.

e|-----------------------------------------------------------------|
B|-----------------------------------------------------------------|
G|-2-2-2/4-4-4-4-0-0-0-0-7-7-7-5-2-2-2/4-4-4-4-0-0-0-0-7-7-7-5-----|
D|-----------------------------------------------------------------|
A|-----------------------------------------------------------------|
E|-----------------------------------------------------------------|

                                Or

e|-----------------------------------------------------------------|
B|-----------------------------------------------------------------|
G|-2-2-2/4-4-4-4---------7-7-7-5-2-2-2/4-4-4-4---------7-7-7-5-----|
D|---------------5-5-5-5-----------------------5-5-5-5-------------|
A|-----------------------------------------------------------------|
E|-----------------------------------------------------------------|


 But I prefer (I know what you're thinking; what do I care what YOU prefer)

e|-----------------------------------------------------------------|
B|-----------------------------------------------------------------|
G|----------------------7-7-7-5-----------------------7-7-7-5------|
D|-7-7-7/9-9-9-9-5-5-5-5--------7-7-7/9-9-9-9-5-5-5-5--------------|
A|-----------------------------------------------------------------|
E|-----------------------------------------------------------------|

Guitar 3: That high part near the end of the guitar playing.

e|-----------------------------------------------------------------|
B|-8-13-12-13-8-8-8-13-12-----8-13-12-13-8-8-8-13-12---------------|
G|-----------------------------------------------------------------|
D|-----------------------------------------------------------------|
A|-----------------------------------------------------------------|
E|-----------------------------------------------------------------|
Tap to rate this tab
# A B C D E F G H I J K L M N O P Q R S T U V W X Y Z