Song name
# A B C D E F G H I J K L M N O P Q R S T U V W X Y Z

30 Seconds To Mars - L490 tab

INTRO:
e|------------------------------------|
b|------------------------------------|
g|------------------------------------|
d|9---9-10---7---7-9---9-10---10---10-|
a|--7------7---7-----7------7----7----|
e|------------------------------------|

Seconds Part:
e|------------------------------------|
b|------------------------------------|
g|----------------------------7----5--|
d|7-7-7-9-9-9-9-5-5-5-5---------------|
a|------------------------------------|
e|------------------------------------|
Tap to rate this tab
# A B C D E F G H I J K L M N O P Q R S T U V W X Y Z