Song name
# A B C D E F G H I J K L M N O P Q R S T U V W X Y Z

30 Seconds To Mars - Was It A Dream Acoustic tab

This tab isn't perfect. I left out little parts like deadening, that's obvious and you 
just listen to the song and figure it out.

Drop C

INTRO
d|---------------------------------------------------------------|
a|---------------------------------------------------------------|
f|---------0---------------------------0-------------------------|
c|-----4-----4---4--------7--------4-----4---4-----7--------9----|
g|-2-2---2-----2------5-5---5---2-2--2-----2---5-5---5--7-7---0--|
d|---------------------------------------------------------------|

d|------------------------------------------------------------------------------|
a|------------------------------------------------------------------------------|
f|---------0--------------------------------------------------------------------|
c|-----4-----4---4------7-------7------------------7-------11--------11---------|
g|-2-2---2-----2----5-5---5---5---5---0-0---0----0--0--9-9----9----9----9-------|
d|------------------------------------------------------------------------------|


VERSE 1
d|----------------------------------------------------------------|
a|----------------------------------------------------------------|
f|---------0-----------------------\------------------------------|
c|-----4-----4---4------7-------7---\---------7------7------------|
g|-2-2---2-----2----5-5---5---5---5--|x3--0-0---0--0---0--9-------|
d|----------------------------------/-----------------------------|x2


CHORUS
d|------------------------------------------|
a|------------------------------------------|
f|-11--7---9---4----11--7---9---------------|
c|-11--7---9---4----11--7---9---------------|
g|-9---5---7---2----9---5---7---------------|
d|-x---x---x---x----x---x---x---------------|

INTRO (variated)
d|---------------------------------------------------------------------------|
a|---------------------------------------------------------------------------|
f|---------0--------------------------------------0--------------------------|
c|-----4-----4---4--------7------7-------------4-----4---4-----7--------9----|
g|-2-2---2-----2------5-5---5--5---5--------2-2--2-----2---5-5---5--7-7---0--|
d|---------------------------------------------------------------------------|

d|-------------------------------------------------------------------------|
a|-------------------------------------------------------------------------|
f|---------0---------------------------------------------------------------|
c|-----4-----4---4------7-------7---------7-------7--------11--------------|
g|-2-2---2-----2----5-5---5---5---5---0-0---0---0--0---9-9---9-------------|
d|-------------------------------------------------------------------------|

VERSE 2
d|------------------------------------------|
a|------------------------------------------|
f|---------0--------------------------------|
c|-----4-----4---4-----------7-------7------|
g|-2-2---2-----2--------5--5---5---5---5--0-|
d|------------------------------------------|

d|--------------------|
a|--------------------|
f|---------0----------|
c|-----4-----4---4----|
g|-2-2---2-----2----5-|
d|--------------------|

d|-------------------------------------------------------------|
a|-------------------------------------------------------------|
f|---------0---------------------------------------------------|
c|-----4-----4---4------7---------7---------7-----7------------|
g|-2-2---2-----2----5-5---5---5-5---5---0-0---0-0---0----------|
d|-------------------------------------------------------------|

CHORUS
d|------------------------------------------|
a|------------------------------------------|
f|-11--7---9---4----11--7---9---------------|
c|-11--7---9---4----11--7---9---------------|
g|-9---5---7---2----9---5---7---------------|
d|-x---x---x---x----x---x---x---------------|


INTERLUDE
d|-------------------------------------------------------------------------------|
a|-------------------------------------------------------------------------------|
f|---------0-----------------0-------------------0------------------0------------|
c|-----4-----4---4-------4-----4---4---------4-----4---4--------4-----4---4------|
g|-2-2---2-----2------2-2--2-----2-------0-0---0-----0------0-0---0-----0--------|
d|-------------------------------------------------------------------------------|x2


CHORUS 2
d|-------------------------------------------------------------------|
a|-------------------------------------------------------------------|
f|-11--7---9---4----11--7---9---2-2--7--9--4--11-7--9--7--5--7--5----|
c|-11--7---9---4----11--7---9---4-4--7--9--4--11-7--9--7--5--7--5----|
g|-9---5---7---2----9---5---7---4-4--5--7--2--9--5--7--5--7--5--7----|
d|-x---x---x---x----x---x---x---x-x--x--x--x--x--x--x--x--x--x--x----|


OUTRO
d|-------------------------------------------------------------------------------|
a|-------------------------------------------------------------------------------|
f|---------0-----------------0-------------------0------------------0------------|
c|-----4-----4---4-------4-----4---4---------4-----4---4--------4-----4---4------|
g|-2-2---2-----2------2-2--2-----2-------0-0---0-----0------0-0---0-----0--------|
d|-------------------------------------------------------------------------------|x2
Tap to rate this tab
# A B C D E F G H I J K L M N O P Q R S T U V W X Y Z