Song name
# A B C D E F G H I J K L M N O P Q R S T U V W X Y Z

30 Seconds To Mars - Equinox tab

                           30 seconds to mars-Equinox


Tabbed by:30-s.t.mathias-RED
Email:s.t.mathias_30_3dg@hotmail.es

Tuning:
guitar(1)
e|------------------------------------------------------------------------------|
B|------------------------------------------------------------------------------|
G|------------------------------------------------------------------------------|
D|--(9)------(9)-(10)-----(7)-----(7)-(9)---(9)-(10)----(10)-----(10)-----------|
A|------(7)------------(7)---(7)----------(7)--------(7)-----(7)----------------|
E|------------------------------------------------------------------------------|
guitar(2)
e|---------------------------------------------------------------------------|
B|---------------------------------------------------------------------------|
G|----------------------------------------------(7)---------(5)--------------|
D|--(7)-(7)-(7)-(9)-(9)-(9)-(9)-(5)-(5)-(5)-(5)-----(5)-(5)-----(5)----------|
A|---------------------------------------------------------------------------|
E|---------------------------------------------------------------------------|
guitar(3)
e|-------(8)-----(7)----(8)---------------(8)------(7)-----------------------|
B|--(8)-----(8)-----(8)----------(8)-(8)------(8)----------------------------|
G|---------------------------------------------------------------------------|
D|---------------------------------------------------------------------------|
A|---------------------------------------------------------------------------|
E|---------------------------------------------------------------------------|
Tap to rate this tab
# A B C D E F G H I J K L M N O P Q R S T U V W X Y Z