Song name
# A B C D E F G H I J K L M N O P Q R S T U V W X Y Z

30 Seconds To Mars - From Yesterday Acoustic tab

I tabbed the acoustic version of the song, but the regular version is pretty much the 
same. You will have to listen to the song for the rhythm in most sections. Enjoy!

Tuning: Drop-C

Intro: x2
d---------------------------------------|
A---------------------------------------|
F---------------------------------------|
C------10----10-----10-----10-----10p9--|
G--8-8---8-8----8-8----8-8----8-8-------|
C---------------------------------------|

d---------------------------------------|
A---------------------------------------|
F---------------------------------------|
C------10----10-----10-----10-----10p9--|
G--0-0---0-0----0-0----0-0----0-0-------|
C---------------------------------------|

The second time around you don't play the pull-off you just end on the A# (10th fret C)

Verse: x2
d---------------------------------------|
A---------------------------------------|
F---------------------------------------|
C------10----10-----10-----10-----10p9--|
G--8-8---8-8----8-8----8-8----8-8-------|
C---------------------------------------|

d---------------------------------------|
A---------------------------------------|
F---------------------------------------|
C------10----10-----10-----10-----10p9--|
G--0-0---0-0----0-0----0-0----0-0-------|
C---------------------------------------|

Same thing with the pull-off thing. After you play this twice you play the same thing 
just play the notes together as chords with an accent on the third chord. Just listen to 
song and you will understand what I mean.

Verse Cont'd: x2
d------------------------------------------------------|
A------------------------------------------------------|
F------------------------------------------------------|
C--10-10-10--10-10-10--10-10-10--10-10-10--10-10-10p9--|
G--8--8--8---8--8--8---8--8--8---8--8--8---8--8--8-----|
C------------------------------------------------------|

d------------------------------------------------------|
A------------------------------------------------------|
F------------------------------------------------------|
C--10-10-10--10-10-10--10-10-10--10-10-10--10-10-10p9--|
G--0--0--0---0--0--0---0--0--0---0--0--0---0--0--0-----|
C------------------------------------------------------|

Same thing end on the A# and don't do the pull-off.

Chorus:
Listen to the song for the rhythm.
d------------------------------|
A------------------------------|
F--12--7--9--5----12--7--5--7--|
C--10--5--7--3----10--5--3--5--|
G--10--5--7--3----10--5--3--5--|
C--10--5--7--3----10--5--3--5--|

Chorus 2:
d---------------------------------|
A---------------------------------|
F--12--7--9--5----12--7--5--5--7--|
C--10--5--7--3----10--5--3--3--5--|
G--10--5--7--3----10--5--3--3--5--|
C--10--5--7--3----10--5--3--3--5--|

Interlude: x3
d------------------------------------|
A------------------------------------|
F-----9-9/10-10-9-9-9/10-10-----3----|
C--77-x-x/x-x---x-x-x/x--x--33--3-2--|
G--77-7-7/8-8---7-7-7/8--8--33--3-2--|
C--77-----------------------33----2--|

Interlude 2: x1
d------------------------------------88888888-10101010101010--|
A------------------------------------88888888-10101010101010--|
F-----9-9/10-10-9-9-9/10-10-----3----66666666-6-6-6-6-6-6-6---|
C--77-x-x/x-x---x-x-x/x--x--33--3-2--66666666-6-6-6-6-6-6-6---|
G--77-7-7/8-8---7-7-7/8--8--33--3-2---------------------------|
C--77-----------------------33----2---------------------------|

Intro
Verse
Verse Cont'd
Chorus
Verse
Verse Cont'd
Chorus 2
Interlude
Interlude 2
Chorus
Tap to rate this tab
# A B C D E F G H I J K L M N O P Q R S T U V W X Y Z