Song name
# A B C D E F G H I J K L M N O P Q R S T U V W X Y Z

30 Seconds To Mars - Search And Destroy tab

30 Seconds to Mars                                    30 Seconds to Mars

This Is war                                                  This Is war

2010                                                                2010


                          "Search and Destroy"





           Am                  C  
Grab your gun, time to go to hell
        F                Dm
I'm no hero, guilty as charged

Search and destroy


E:----3---3------3------3---3------3------3---3------3------3---3------5--|(during Verses)
B:--3---3-----3-------3---3-----3-------3---3-----3-------3---3-----3-----|
G:-5-5-5-5-5-5-5-----5-5-5-5-5-5-5-----5-5-5-5-5-5-5-----5-5-5-5-5-5-5----|x2
D:------------------------------------------------------------------------|
A:------------------------------------------------------------------------|
E:------------------------------------------------------------------------|

          Am             C
Found my faith living in sin
         F                         Dm
I'm no Jesus, neither are you, my friend
         Am                       C
I'm a whore, I'm perfect, broken dreams
          F                      Dm
A simple answer is never what it seems


E:-15-13-12----15-13-12----15-13-12--------------------|
B:-----------------------------------------------------|
G:----------14----------14----------14--------12-------|
D:-----------------------------------------------------|
A:-----------------------------------------------------|
E:-----------------------------------------------------|

C                               F
A million little pieces we've broken into
Am                           G
A million little pieces, I stole it from you


E:-----------------------------------------------------------------------------|
B:-----------------------------------------------------------------------------|
G:-5-5-5-5-5-5-5-5--7-7-7-7-7-7-7-7--9-9-9-9-9-9-9-9--12-12-12-12-14-14-14-14--|
D:-----------------------------------------------------------------------------|x4
A:-----------------------------------------------------------------------------|
E:-----------------------------------------------------------------------------|

E:-8-8-7-7---------8-8-7-7---------8-8-7-7-------------7-7-8-8-10-10--|
B:---------8-8-------------8-8-------------8-8-----8-8----------------|
G:-------------9-9-------------9-9-------------9-9--------------------|
D:--------------------------------------------------------------------|
A:--------------------------------------------------------------------|
E:--------------------------------------------------------------------|

E:-8-8-7-7---------8-8-7-7----------|
B:---------8-8-------------8-8------|
G:-------------9-9-------------9-9--|
D:----------------------------------|
A:----------------------------------|
E:----------------------------------|


F      G    C       C            F   G   C
Search and destroy, search and destroy
F      G    C       C            F   G   C
Search and destroy, search and destroy


         Am                 C
Sold my soul to heaven and to hell
           F                           Dm
Sick as my secrets, I'm never going to tell
        Am               C
Like to blame, burden of my streams
         F                    Dm
A curse of faith and less that I believe, I believe


E:-15-13-12----15-13-12----15-13-12----15-13-12-15---|
B:---------------------------------------------------|
G:----------14----------14----------14---------------|
D:---------------------------------------------------|
A:---------------------------------------------------|
E:---------------------------------------------------|
        C          F             Am
I believe, I believe, oh, I believe (A million little pieces...)
        G
I believe


E:-8-8-7-7---------8-8-7-7---------8-8-7-7-------------7-7-8-8-10-10--|
B:---------8-8-------------8-8-------------8-8-----8-8----------------|
G:-------------9-9-------------9-9-------------9-9--------------------|
D:--------------------------------------------------------------------|x2
A:--------------------------------------------------------------------|
E:--------------------------------------------------------------------|

E:-8-8-7-7---------8-8-7-7----------|
B:---------8-8-------------8-8------|
G:-------------9-9-------------9-9--|
D:----------------------------------|
A:----------------------------------|
E:----------------------------------|


F      G    C       C            F   G   C
Search and destroy, search and destroy
F      G    C       C            F   G 
Search and destroy, search and destroy,


E:-8-8-8-8-8-8-8-8-7-7-7-7-------------------8-8-8-8-8-8-8-8-7-7-7-7---------|
B:-------------------------8-8-8-8-8s10(x16)-------------------------10(x20)-|
G:---------------------------------------------------------------------------|
D:---------------------------------------------------------------------------|
A:---------------------------------------------------------------------------|
E:---------------------------------------------------------------------------|

              Am   F   Am   F
search and destroy

E:-8-8-8-8-8-8-8-8-7-7-7-7-------------------8-8-8-8-8-8-8-8-7-7-7-7--------------------|
B:-------------------------8-8-8-8-8s10(x16)-------------------------10(x14)------------|
G:--------------------------------------------------------------------------5-5-5-5-5-5-|
D:--------------------------------------------------------------------------------------|
A:--------------------------------------------------------------------------------------|
E:--------------------------------------------------------------------------------------|

E:-----------------------------------------------------------------------
B:-----------------------------------------------------------------------
G:-4s5-5-5-5s7-7-7-7s9-9-9-4-4-4-4-4s5-5-5-5s7-7-7-7s9-9-9-4-4-4-4-4s5-5-
D:-----------------------------------------------------------------------
A:-----------------------------------------------------------------------
E:-----------------------------------------------------------------------

--------------------------------|
--------------------------------|
5-5s7-7-7-7s9-9(x6)-9s10(...)s0-|
--------------------------------|
--------------------------------|
--------------------------------|

E:------------------------------------------------|
B:------------------------------------------------|
G:-4-4-4-4-4s5-5-5-5s7-7-7-7s9-9(x6)-9s10(...)s0--|
D:------------------------------------------------|
A:------------------------------------------------|
E:------------------------------------------------|

   Am       F
I let go, let go
   Am         F
Let me go, let me go
   Am      F
Let go, let go
       G
Let me go


C   F   Am   G    x3
(Search and destroy...)
A million little pieces...
Stole it from you

E:-8-8-7-7---------8-8-7-7---------8-8-7-7-------------7-7-8-8-10-10--|
B:---------8-8-------------8-8-------------8-8-----8-8----------------|
G:-------------9-9-------------9-9-------------9-9--------------------|
D:--------------------------------------------------------------------|x5
A:--------------------------------------------------------------------|
E:--------------------------------------------------------------------|

E:-8-8-7-7---------8-8-7-7----------|
B:---------8-8-------------8-8------|
G:-------------9-9-------------9-9--|
D:----------------------------------|
A:----------------------------------|
E:----------------------------------|

F G C  C  F G C 
oh  oh   ho 
F      G    C       C            F   G   C
Search and destroy, search and destroy
F      G    C       C            F   G   c
Search and destroy, search and destroy 

 (C)
  F
A million little pieces
  Am                       G
A million little pieces to start


C  F  Am  G
Tap to rate this tab
 
# A B C D E F G H I J K L M N O P Q R S T U V W X Y Z