30 Seconds To Mars - Kings And Queens tab

All Guitars Half Step Down

Guitar 1

Intro
e------------------------------------------------------------------------|
b------------------------------------------------------------------------|
g------------------------------------------------------------------------|
d------------------------------------------------------------------------|
a------------------------------------------------------------------------|
d-00000000-22222222-5555555555555555-00000000-22222222-55555555-5700707--|

e------------------------------------------------------------------------|
b------------------------------------------------------------------------|
g------------------------------------------------------------------------|
d------------------------------------------------------------------------|
a------------------------------------------------------------------------|
d-00000000-22222222-5555555555555555-00000000-22222222-55555555-5777777\-|

Slide Up then down on the D String before chorus

Repeat Intro For Chorus

Second Half of Second Chorus
e----------------------------------------------------------------------|
b----------------------------------------------------------------------|
g----------------------------------------------------------------------|
d----------------------------------------------------------------------|
a----------------------------------------------------------------------|
d--0-0-0-0-2-0-0-0-5-0-0-0-7-0-0-0-7-7-7-7-7-7-7-7-7-9-0-0-11-0-11-12/-|

Bridge 

Rest

Chorus 3		Repeat Chorus Normally Twice

Outro
e---------------------------------------------------------------------------------|
b---------------------------------------------------------------------------------|
g-9-11-11-11-11-13-13-13-13-14-14-14-14-16-16-16-16-16-16-16-16-16-16-16-16-9-9-9-|
d-x--x--x--x--x--x--x--x--x--x--x--x--x--x--x--x--x--x--x--x--x--x--x--x--x-x-x-x-|
a-7--9--9--9--9-11-11-11-11-12-12-12-12-14-14-14-14-14-14-14-14-14-14-14-14-7-7-7-|
d---------------------------------------------------------------------------------|

e-----------------------------------------------------------------------------------------|
b-----------------------------------------------------------------------------------------|
g-9-11-11-11-11-13-13-13-13-14-14-14-14-13-13-13-13-11-11-11-11--9--9--9--9---------------|
d-x--x--x--x--x--x--x--x--x--x--x--x--x--x--x--x--x--x--x--x--x--x--x--x--x-9-9-9-9-9-----|
a-7--9--9--9--9-11-11-11-11-12-12-12-12-11-11-11-11--9--9--9--9--7--7--7--7-x-x-x-x-x-----|
d---------------------------------------------------------------------------7-7-7-7-7-\\\-|

e---------------------------------------------------------------------------------|
b---------------------------------------------------------------------------------|
g-9-11-11-11-11-13-13-13-13-14-14-14-14-16-16-16-16-16-16-16-16-16-16-16-16-9-9-9-|
d-x--x--x--x--x--x--x--x--x--x--x--x--x--x--x--x--x--x--x--x--x--x--x--x--x-x-x-x-|
a-7--9--9--9--9-11-11-11-11-12-12-12-12-14-14-14-14-14-14-14-14-14-14-14-14-7-7-7-|
d---------------------------------------------------------------------------------|

e-------------------------------------------------------------------------------------|
b-------------------------------------------------------------------------------------|
g-9-11-11-11-11-13-13-13-13-14-14-14-14-21-21-21-21-21-21-21-21-21-21-21-21-21-21-21--|
d-x--x--x--x--x--x--x--x--x--x--x--x--x--x--x--x--x--x--x--x--x--x--x--x--x--x--x--x--|
a-7--9--9--9--9-11-11-11-11-12-12-12-12-19-19-19-19-19-19-19-19-19-19-19-19-19-19-19--|
d-----------------------------------------------------------------^^-Bend-Slightly----|










Guitar 2/Piano

PreSong
e---------------|
b---------------|
g-9------7------|
d-9------7------| 2x
a---------------|
d---------------|


Intro 
e---------------------------------------------------------------------|
b------12----12--------12----12---------9-----9---------9-----9-------|
g-9-9-9----9-----9-9-9------9-----9-9-9-----9-----9-9-9-----9---------|
d---------------------------------------------------------------------|
a---------------------------------------------------------------------|
d---------------------------------------------------------------------|

e---------------------------------------------------------------------|
b-------12----12--------12----12---------9-----9---------10-----10----|
g-9-9-9-----9-----9-9-9------9-----9-9-9-----9-----9-9-9------9-------|
d---------------------------------------------------------------------|
a---------------------------------------------------------------------|
d---------------------------------------------------------------------|

e-----------------|     |---------------|
b-999-101010-1212-|     |-12-12-12-12---|
g-----------------| 7x  |--9--9--9--9---| 4x
d-----------------|     |---------------|
a-----------------|     |---------------|
d-----------------|     |---------------|

Verse 

e---------------------------------------------------------------------------------|
b-12\-----9-10-----10-9----9-10----10-9----9-10----10-9----9-10----10-9----9----7-|
g--9\---9--------9-------9-------9-------9-------9-------9-------9-------9---9--7-|
d---------------------------------------------------------------------------------|
a---------------------------------------------------------------------------------|
d---------------------------------------------------------------------------------|

e--------------------------------------------------------------------------------|
b-------12-----10-9----9-10----10-9----9-10----10-9----9-10----10-9----9---------|
g-9-9-9------9-------9-------9-------9-------9-------9-------9-------9---9-7-----|
d--------------------------------------------------------------------------7---7-|
a------------------------------------------------------------------------------7-|
d--------------------------------------------------------------------------------|


PreChorus 
e-------------------------------------------------------------------------|
b-------12-----12---------12-----12---------12-----12---------12-----12---|
g-9-9-9----9-9----9-9-9-9----9-9----9-9-9-9----9-9----9-9-9-9----9-9----9-|
d-------------------------------------------------------------------------|
a-------------------------------------------------------------------------|
d-------------------------------------------------------------------------|

e-------------------------------------------------------------------------|
b---12-------12-------12-------12-------12-------12-------12-------12-----|
g-9----9-9-9----9-9-9----9-9-9----9-9-9----9-9-9----9-9-9----9-9-9----9-9-|
d-------------------------------------------------------------------------|
a-------------------------------------------------------------------------|
d-------------------------------------------------------------------------|

Repeat Chorus

PostChorus Rest

Verse 2
e-------------12---10------------------|
b----10--12--(12)----------12--10--(9)-| 
g-9------------------------------------| 2x   Play Bracketed Second Time Through
d--------------------------------------| 
a--------------------------------------|
d--------------------------------------|

Rest 

PreChorus 2
e-------------------------------------------------------------------------|
b---------------------------------------12-------12-------12-------12-----|
g-9-9-9-9--9-9-9-9--9-9-9-9--9-9-9-9--9----9-9-9----9-9-9----9-9-9----9-9-|
d-------------------------------------------------------------------------|
a-------------------------------------------------------------------------|
d-------------------------------------------------------------------------|

Repeat Chorus 

Bridge

e---------------|
b--10--9--------|
g---------9-----|
d---------------| 
a---------------|
d---------------|
 
Rest

e------------------------|
b--9-12-10-10-12-9-10-10-|
g------------------------|
d------------------------| 12x  
a------------------------|
d------------------------|

e----------------------------------------------------------------------------------------|
b----12-10-9-12-10-9-12-10-9-12-10-9-12-10-9-12-10-9-12-10-9-12-10-9-12-10-9-12-10-9-12--|
g--9-------------------------------------------------------------------------------------|
d----------------------------------------------------------------------------------------|    
a----------------------------------------------------------------------------------------|
d----------------------------------------------------------------------------------------|

Repeat Chorus 

Outro
e---------------------------------------------------------------------------------|
b---------------------------------------------------------------------------------|
g-9-11-11-11-11-13-13-13-13-14-14-14-14-16-16-16-16-16-16-16-16-16-16-16-16-9-9-9-|
d-x--x--x--x--x--x--x--x--x--x--x--x--x--x--x--x--x--x--x--x--x--x--x--x--x-x-x-x-|
a-7--9--9--9--9-11-11-11-11-12-12-12-12-14-14-14-14-14-14-14-14-14-14-14-14-7-7-7-|
d---------------------------------------------------------------------------------|

e-----------------------------------------------------------------------------------------|
b-----------------------------------------------------------------------------------------|
g-9-11-11-11-11-13-13-13-13-14-14-14-14-16-16-16-16-14-14-14-14-13-13-13-13-9-9-9-9-9-9-9-|
d-x--x--x--x--x--x--x--x--x--x--x--x--x--x--x--x--x--x--x--x--x--x--x--x--x-x-x-x-x-x-x-x-|
a-7--9--9--9--9-11-11-11-11-12-12-12-12-14-14-14-14-12-12-12-12-11-11-11-11-7-7-7-7-7-7-7-|
d-----------------------------------------------------------------------------------------|

e---------------------------------------------------------------------------------|
b---------------------------------------------------------------------------------|
g-9-11-11-11-11-13-13-13-13-14-14-14-14-16-16-16-16-16-16-16-16-16-16-16-16-9-9-9-|
d-x--x--x--x--x--x--x--x--x--x--x--x--x--x--x--x--x--x--x--x--x--x--x--x--x-x-x-x-|
a-7--9--9--9--9-11-11-11-11-12-12-12-12-14-14-14-14-14-14-14-14-14-14-14-14-7-7-7-|
d---------------------------------------------------------------------------------|

e-------------------------------------------------------------------------------------|
b-------------------------------------------------------------------------------------|
g-9-11-11-11-11-13-13-13-13-14-14-14-14-21-21-21-21-21-21-21-21-21-21-21-21-21-21-21b-|
d-x--x--x--x--x--x--x--x--x--x--x--x--x--x--x--x--x--x--x--x--x--x--x--x--x--x--x--x--|
a-7--9--9--9--9-11-11-11-11-12-12-12-12-19-19-19-19-19-19-19-19-19-19-19-19-19-19-19b-|
d-------------------------------------------------------------------^^-Bend-Slightly--|

Outro 

e--7-----7-----7-----7-----5-----5-----5-----5-------------------------|
b----5-----5-----5-----5-----5-----5-----5-----5-----------------------|
g------4-----4-----4-----4-----4-----4-----4-----4---------------------|
d----------------------------------------------------------------------|
a----------------------------------------------------------------------|
d----------------------------------------------------------------------|

e--4-----4-----4-----4---------7-----7-----7-----7---------------------|
b----5-----5-----5-----5-----4-----4-----4-----4-----------------------|
g------4-----4-----4-----4-4-----4-----4-----4-------------------------|
d----------------------------------------------------------------------|
a----------------------------------------------------------------------|
d----------------------------------------------------------------------|

e--7-----7-----7-----7-----5-----5-12----12-----\----------------------|
b----5-----5-----5-----5-----5--------12----12--/---16x----------------|
g------4-----4-----4-----4-----4---------------------------------------|
d----------------------------------------------------------------------|
a----------------------------------------------------------------------|
d----------------------------------------------------------------------|



Guitar 3/Violins

Intro
e----------------------------------------------------------------------|
b-12121212121212121212121212121212--9-9-9-9-9-9-9-9-9-9-9-9-9-9-9-9----|
g--x-x-x-x-x-x-x-x-x-x-x-x-x-x-x-x--x-x-x-x-x-x-x-x-x-x-x-x-x-x-x-x----|
d--9-9-9-9-9-9-9-9-9-9-9-9-9-9-9-9--6-6-6-6-6-6-6-6-6-6-6-6-6-6-6-6----|
a----------------------------------------------------------------------|
d----------------------------------------------------------------------|

e----------------------------------------------------------------------|
b-12121212121212121212121212121212--9-9-9-9-9-9-9-9--------------------|
g--x-x-x-x-x-x-x-x-x-x-x-x-x-x-x-x--x-x-x-x-x-x-x-x--------------------|
d--9-9-9-9-9-9-9-9-9-9-9-9-9-9-9-9--6-6-6-6-6-6-6-6-7-9-----9---9------|
a----------------------------------------------------------------------|
d-------------------------------------------------------0-0---0--------|

e----------------------------------------------------------------------|
b-12121212121212121212121212121212--9-9-9-9-9-9-9-9-9-9-9-9-9-9-9-9----|
g--x-x-x-x-x-x-x-x-x-x-x-x-x-x-x-x--x-x-x-x-x-x-x-x-x-x-x-x-x-x-x-x----|
d--9-9-9-9-9-9-9-9-9-9-9-9-9-9-9-9--6-6-6-6-6-6-6-6-6-6-6-6-6-6-6-6----|
a----------------------------------------------------------------------|
d----------------------------------------------------------------------|

e-----------------------------------12121212121212121212121212121212---|
b-12121212121212121212121212121212---x-x-x-x-x-x-x-x-x-x-x-x-x-x-x-x---|
g--x-x-x-x-x-x-x-x-x-x-x-x-x-x-x-x---9-9-9-9-9-9-9-9-9-9-9-9-9-9-9-9---|
d--9-9-9-9-9-9-9-9-9-9-9-9-9-9-9-9-------------------------------------|
a----------------------------------------------------------------------|
d----------------------------------------------------------------------|

Verse 1   Rest

PreChorus

e---------------|
b----12-10-9----|
g--9------------|
d---------------| 16x
a---------------|
d---------------|

Repeat Intro For Chorus

PostChorus

         3x                 1x
e-------------------|-------------------|
b-10--9---12---9----|-10---9--------9---|
g---9---9----9---9--|----9---9-11-9---9-|
d-------------------|-------------------|
a-------------------|-------------------|
d-------------------|-------------------|

Verse 2 Rest

PreChorus 2 Repeat PostChorus

Repeat Intro For Chorus

Bridge Rest

Bridge/PreChorus Repeat PostChorus

Repeat Intro for Chorus

Chorus Part/Outro

e------------------------------------------------------------------------|
b------------------------------------------------------------------------|
g------------------------------------------------------------------------|
d------------------------------------------------------------------------|
a------------------------------------------------------------------------|
d-00000000-22222222-5555555555555555-00000000-22222222-55555555-5700707--|

e------------------------------------------------------------------------|
b------------------------------------------------------------------------|
g------------------------------------------------------------------------|
d------------------------------------------------------------------------|
a------------------------------------------------------------------------|
d-00000000-22222222-5555555555555555-00000000-22222222-55555555-5777777\-|
Tap to rate this tab
 
# A B C D E F G H I J K L M N O P Q R S T U V W X Y Z