Song name
# A B C D E F G H I J K L M N O P Q R S T U V W X Y Z

30 Seconds To Mars - Kings And Queens tab

Kings and Queens – 30 Seconds to mars

A lot of the instruments used in this song aren’t guitar and the lead is hard to hear 
but this tab I think sounds the best


Tuning: Drop D

Intro:

Rhythm:

E------------------------------------------|
B------------------------------------------|
G--8~--------6~--------8~--------6~--------|
D--8~--------6~--------8~--------6~--------|
A--6~--------4~--------6~--------4~--------|
D------------------------------------------|


Chorus/second half of intro:

Rhythm:

E-------------------------------------------------------------------------|
B-------------------------------------------------------------------------| x2
G-------------------------------------------------------------------------|
D--11111111-33333333-6666666666666666-11111111-33333333-66666666-88888888-|
A--11111111-33333333-6666666666666666-11111111-33333333-66666666-88888888-|
D--11111111-33333333-6666666666666666-11111111-33333333-66666666-88888888-|

Lead:

E--------6----6---------6----6--|-------------------------------|
B----8--------------8-----------|--------8-----8--------8-----8-| x2
G------8----8---------8----8----|----8--------------8-----------|
D--8--------------8-------------|--6---6----6-----6---6----6----|
A-------------------------------|-------------------------------|
D-------------------------------|-------------------------------|

E----------------------|      |----11-----11-----11-----11/--|
B--8-8-8--9-9-9--12-12-| x6   |--8------8------8------8------|
G----------------------|      |------------------------------|
D----------------------|      |------------------------------|
A----------------------|      |------------------------------|
D----------------------|      |------------------------------|


Verse:

Lead (only at the start of the verse):

E----------------------------------------|
B-8-9--9-8--8-9--9-8--8-9--9-8--8-9--9-8-|
G----------------------------------------|
D----------------------------------------|
A----------------------------------------|
D----------------------------------------|

Rhythm:

E--------------------------------------------|
B--------------------------------------------|
G--8~--------6~--------8~--------6~----------|
D--8~--------6~--------8~--------6~----6~----|
A--6~--------4~--------6~--------4~----6~----|
E--------------------------------------6~----|


Pre-chorus:

E--11--------|	     |----11-|
B----11--8-9-| x6   |--11---| x4
G------------|	     |-------|
D------------|	     |-------|
A------------|	     |-------|
D------------|	     |-------|

Chorus:

Rhythm:

E-------------------------------------------------------------------------|
B-------------------------------------------------------------------------| x2
G-------------------------------------------------------------------------|
D--11111111-33333333-6666666666666666-11111111-33333333-66666666-88888888-|
A--11111111-33333333-6666666666666666-11111111-33333333-66666666-88888888-|
D--11111111-33333333-6666666666666666-11111111-33333333-66666666-88888888-|

Lead:

E--------6----6---------6----6--|-------------------------------|
B----8--------------8-----------|--------8-----8--------8-----8-| x2
G------8----8---------8----8----|----8--------------8-----------|
D--8--------------8-------------|--6---6----6-----6---6----6----|
A-------------------------------|-------------------------------|
D-------------------------------|-------------------------------|

E----------------------|       |----11-----11-----11-----11---|
B--8-8-8--9-9-9--12-12-| x6    |--8------8------8------8------|
G----------------------|       |------------------------------|
D----------------------|       |------------------------------|
A----------------------|       |------------------------------|
D----------------------|       |------------------------------|

Pre-verse/violin part:

E-------------------|       |-------------------|    	(x2)
B----9---8---11---8-| x3    |----9---8--------8-| x1
G--8---8---8----8---|       |--8---8---8-10-8---|
D-------------------|       |-------------------|
A-------------------|       |-------------------|
D-------------------|       |-------------------|


Verse:

Rhythm:

E--------------------------------------------|
B--------------------------------------------|
G--8~--------6~--------8~--------6~----------|
D--8~--------6~--------8~--------6~----6~----|
A--6~--------4~--------6~--------4~----6~----|
E--------------------------------------6~----|

Lead:

E------------11~--------9~----------------------|
B----9---9p8------------------11~----9~---------|
G--8---8----------------------------------------|
D-----------------------------------------------|
A-----------------------------------------------|
D-----------------------------------------------|

E------------11/--------9~----------------------|
B----9---9p8------------------11~----9~----8~---|
G--8---8----------------------------------------|
D-----------------------------------------------|
A-----------------------------------------------|
D-----------------------------------------------|

E-------------------|	     |-------------------|    	(x3)
B----9---8---11---8-| x3   |----9---8--------8-| x1
G--8---8---8----8---|	     |--8---8---8-10-8---|
D-------------------|	     |-------------------|
A-------------------|	     |-------------------|
D-------------------|	     |-------------------|

E-------------------|      |----11------11~----|    	(x1)
B----9---8---11---8-| x2   |--8-------8--------| x1
G--8---8---8----8---|      |-------------------|
D-------------------|      |-------------------|
A-------------------|      |-------------------|
D-------------------|      |-------------------|

Chorus:

E-------------------------------------------------------------------------|
B-------------------------------------------------------------------------| x2
G-------------------------------------------------------------------------|
D--11111111-33333333-6666666666666666-11111111-33333333-66666666-88888888-|
A--11111111-33333333-6666666666666666-11111111-33333333-66666666-88888888-|
D--11111111-33333333-6666666666666666-11111111-33333333-66666666-88888888-|

Lead:

E--------6----6---------6----6--|-------------------------------|
B----8--------------8-----------|--------8-----8--------8-----8-| x2
G------8----8---------8----8----|----8--------------8-----------|
D--8--------------8-------------|--6---6----6-----6---6----6----|
A-------------------------------|-------------------------------|
D-------------------------------|-------------------------------|

E----------------------|        |----11-----11-----11-----11---|
B--8-8-8--9-9-9--12-12-| x6     |--8------8------8------8------|
G----------------------|        |------------------------------|
D----------------------|        |------------------------------|
A----------------------|        |------------------------------|
D----------------------|        |------------------------------|


Bridge:

Small Piano Bit:

E----------------|
B--11-11--9-9--8-|
G----------------|
D----------------|
A----------------|
D----------------|

The violin piece starts up again. It starts really quiet and increases in volume until 
the chorus. I usually palm mute it at the start to get it quiet but you can do whatever.

E-------------------|        |-------------------|    	(x8)
B----9---8---11---8-| x3     |----9---8--------8-| x1
G--8---8---8----8---|        |--8---8---8-10-8---|
D-------------------|        |-------------------|
A-------------------|        |-------------------|
D-------------------|        |-------------------|


Chorus:

E-------------------------------------------------------------------------|
B-------------------------------------------------------------------------| x2
G-------------------------------------------------------------------------|
D--11111111-33333333-6666666666666666-11111111-33333333-66666666-88888888-|
A--11111111-33333333-6666666666666666-11111111-33333333-66666666-88888888-|
D--11111111-33333333-6666666666666666-11111111-33333333-66666666-88888888-|

Lead:

E--------6----6---------6----6--|-------------------------------|
B----8--------------8-----------|--------8-----8--------8-----8-| x2
G------8----8---------8----8----|----8--------------8-----------|
D--8--------------8-------------|--6---6----6-----6---6----6----|
A-------------------------------|-------------------------------|
D-------------------------------|-------------------------------|

E----------------------|        |----11-----11-----11-----11---|
B--8-8-8--9-9-9--12-12-| x6     |--8------8------8------8------|
G----------------------|        |------------------------------|
D----------------------|        |------------------------------|
A----------------------|        |------------------------------|
D----------------------|        |------------------------------|


Outro:

E-----------------------------------------------------|
B-----------------------------------------------------| x3
G--8/10-10-10-10/12-12-12-12/13-13-13-13/15-15/-(x16)-|
D--x/-x--x--x--x/-x--x--x--x/-x--x--x--x/-x--x/-------|
A--6/-8--8--8--8/10-10-10-10/11-11-11-11/13-13/-------|
D-----------------------------------------------------|

E-----------------------------------------------------|
B-----------------------------------------------------| x1
G--8/10-10-10-10/12-12-12-12/13-13-13-13/20-20/-(x16)-|
D--x/-x--x--x--x/-x--x--x--x/-x--x--x--x/-x--x/-------|
A--6/-8--8--8--8/10-10-10-10/11-11-11-11/18-18/-------|
D-----------------------------------------------------|
Tap to rate this tab
 
# A B C D E F G H I J K L M N O P Q R S T U V W X Y Z