Song name
# A B C D E F G H I J K L M N O P Q R S T U V W X Y Z

30 Seconds To Mars - This Is War Acoustic tab

Hi this is my new This is War Tab because my first was totally wrong, and I 
noticed it when I played it so here is the good one ;)

For is Tab I use Powerchords.

Intro:


A Warning to the people, the Good and the Evil
This Is War
To the Soldier, The Civillian, The Martyr, The Victim
This is War

-------------------------------------------------------|
----------------------------------------6666-----------|
-------------------------------------------------------|
--------8888-------6666-------4444---------------------| x6
----666--------444--------222-------444----------------|
-------------------------------------------------------|
(Play it twice without singing)

Bridge 1:
          B                    C#
Its the moment...        The moment to live and ... die.
      B                         C#
The moment to fight...   ...to fight, to fight, to fight
--------------------------------------------------------|
--------------------------------------------------------|
--44444444444444-------------666666666666666------------|
--44444444444444-------------666666666666666------------|
--22222222222222-------------444444444444444------------|
--------------------------------------------------------|


Chorus:
           F#                        C#
1.To the right To the left we will fight to the death
2.To the right To the left We will fight to the death
------------------------------------------------------|
------------------------------------------------------|
----------11-------------------------6----------------|
----------11-------------------------6----------------|
----------9--------------------------4----------------|
------------------------------------------------------|

          Eb                        B
1.To the Edge of the Earth, It's a Brave .. the last to the first
2.To the Edge of the Earth,its a Brave New World a Brave New World
----------------------------------------------------|
----------------------------------------------------|
---------8------------------------4-----------------|
---------8------------------------4-----------------|
---------6------------------------2-----------------|
----------------------------------------------------|



A warning to the prophet, the liar, the honest
This is War
To the leader, the pariah, the victor, the messiah
This is war
-------------------------------------------------------|
----------------------------------------6666-----------|
-------------------------------------------------------|
--------8888-------6666-------4444---------------------| x4
----666--------444--------222-------444----------------|
-------------------------------------------------------|



Bridge:
           B                   
Its the moment of truth and the moment to lie
          C#
Its the moment to live and the moment to die
      B                                      C#
The moment to fight, the moment to fight, to fight, to fight, to fight

Chorus:
                                 
To the right, To the left, we will fight to the death
 To the Edge of the Earth, It's a Brave New World from the last to the first
To the right, To the left, We will fight to the death
To the Edge of the Earth its a Brave New World, Brave New World, Its A Brave New World


F#      C#            Eb               B               F#
I do believe in the light, raise your hands up to the sky
                  C#            Eb            B                 F#
The fight is done, the war is won, lift your hands towards the sun
C#            Eb B             F#             C#   
 towards the sun, towards the sun, the war is won

Chorus:

To the right, To the left, we will fight to the death
To the Edge of the Earth, It's a Brave New World from the last to the first
To the right, To the left, We will fight to the death
To the Edge of the Earth its a Brave New World Brave New World Its A Brave New World
A Brave New World The War is Won The War is Won
A Brave New World

The war is won, the war is won, a brave new world



F#           C#                Eb               B
I believe in nothing, not the end and not the start
I believe in nothing, not the earth and not the stars
I believe in nothing, not the day and not the dark
I believe in nothing but the beating of our hearts
I believe in nothing 100 suns until we part
I believe in nothing not in satan, not in god
I believe in nothing, not in peace and not in war
I believe in nothing but the truth of who we are


Now it fits with the Album version :D
Tap to rate this tab
 
# A B C D E F G H I J K L M N O P Q R S T U V W X Y Z