Song name
# A B C D E F G H I J K L M N O P Q R S T U V W X Y Z

30 Seconds To Mars - Stranger In A Strange Land tab

-----------------------------------------------------------------------------
                       Stranger in a Strange Land  30 Seconds to Mars
-----------------------------------------------------------------------------
Tabbed by:Chelsey (chel_hero)
Email:chelseydykes@yahoo.co.uk

Tuning: Standard 

e|----------------------------------------------------------------|
B|----------------------------------------------------------------|
G|-3-3-3-3-3-3-3-3-7-7-7-7-7-7-7-7-2-2-2-2-2-2-2-2-2-2-2-2-2-2-2-2|  X4
D|-4-4-4-4-4-4-4-4-8-8-8-8-8-8-8-8-3-3-3-3-3-3-3-3-3-3-3-3-3-3-3-3|
A|-4-4-4-4-4-4-4-4-8-8-8-8-8-8-8-8-3-3-3-3-3-3-3-3-3-3-3-3-3-3-3-3|
E|-2-2-2-2-2-2-2-2-6-6-6-6-6-6-6-6-1-1-1-1-1-1-1-1-1-1-1-1-1-1-1-1|


This is my first tab so i'm not sure it's perfect but 30 Seconds to Mars are awesome!!!
Tap to rate this tab
 
# A B C D E F G H I J K L M N O P Q R S T U V W X Y Z