Song name
# A B C D E F G H I J K L M N O P Q R S T U V W X Y Z

30 Seconds To Mars - Under Pressure tab

Learned this by ear and by watching jared playing it, its a good song and really easy to 
play.. i think im really close to the original

Drop D
this is the basic version
e-----------------------------------------|
B-----------------------------------------|
G------6-------9--9--------9-------11-----|
D-------------------7---------------------|
A-----------------------------------------|
D---4------7------------0------9----------|

but you can try something like this
e------------------------------------------|
B------------------------------------------|
G------6-------9--9---------9-------11-----|
D---4------7----------7--0------9----------|
A---4------7-------------0------9----------|
D---4------7-------------0------9----------|

my attempt on this song (video with tab): http://www.youtube.com/watch?v=OuVjefKnNJg
Tap to rate this tab
 
# A B C D E F G H I J K L M N O P Q R S T U V W X Y Z