Song name
# A B C D E F G H I J K L M N O P Q R S T U V W X Y Z

30 Seconds To Mars - This Is War tab

D#|-----------------|-----------------|-----------------|-----------------|
A#|-----------------|-----------------|-----------------|---------4--4-4--|
F#|-----------------|-------1--1-1----|-----------------|-----------------|
C#|-------8--8-8----|-----------------|---------4--4-4--|-----------------|
G#|-6-6-6-----------|-----------------|--2-2-2----------|-----------------|
D#|-----------------|--2-2-2----------|-----------------|--4-4-4----------|

second time round, replace the last bar with
-----------------|
-----------------|
-----------------|
---------6--66---|
--4-4-4----------|
-----------------|
Tap to rate this tab
 
# A B C D E F G H I J K L M N O P Q R S T U V W X Y Z