Song name
# A B C D E F G H I J K L M N O P Q R S T U V W X Y Z

30 Seconds To Mars - Capricorn Acoustic tab

I wanted to record this song with my acoustic guitar at home, but I was unable to find
any tabs that I was pleased with, so I scrabbled this down on a text file and figured I'd
upload it. The tab is from a live recording of 30StM. I'm not 100% sure on some of the 
parts, but it should be somewhat usable. If you're picky I'm sure you can use this as a
starting point at least.

You'll have to figure out the tempo and how to strum the strings yourself. Just listen
to the song while you play it and it should turn out fine.

Verse
e|--------------------------|
B|--------------------------|
G|--10-----8-----6----------|
D|--10-----8-----6----------|
A|---8-----6-----4----------|
E|---8-----6-----4----------|

e|----------------------------------------|
B|----------------------------------------|
G|--10---------------------10-------------|
D|--10-----6----8-----4----10-------------|
A|---8-----6----8-----4-----8-------------|
E|---8-----4----6-----2-----8-------------|

e|----------------------------------------|
B|----------------------------------------|
G|--10-----8-----6------------------------|
D|--10-----8-----6------6----8---10-------|
A|---8-----6-----4------6----8---10-------|
E|---8-----6-----4------4----6----8-------|


Chours
e|------------------------------------------|
B|------------------------------------------|
G|--10---6---3---8------10---6---3---6------|
D|--10---6---3---8------10---6---3---6--6---|
A|---8---4---1---6-------8---4---1---4--6---|
E|---8---4-------6-------8---4---1------4---|

Repeat Verse and Chours (x1)

Bridge (ooooh oooh oooh)
e|----------------------------|
B|----------------------------|
G|-10------------8---6---5----|
D|-10---6--8-----8---6---5----|  x2
A|--8---6--8-----6---4---3----|
E|--8---4--6-----6---4---3----|

Chours (this is where hes singing a bit louder)

e|------------------------------------------|
B|------------------------------------------|
G|--10---6---3---8------10---6---3---6------|
D|--10---6---3---8------10---6---3---6--6---|
A|---8---4---1---6-------8---4---1---4--6---|
E|---8-----------6-------8---4---1------4---|

Repeat the parts of the verse he sings (line 1, 2 and then 1 at the end).
Tap to rate this tab
 
# A B C D E F G H I J K L M N O P Q R S T U V W X Y Z