Song name
# A B C D E F G H I J K L M N O P Q R S T U V W X Y Z

30 Seconds To Mars - A Modern Myth tab

jman81

Tuning: Drop D

Intro
Gtr1
e|-----------------------------------------------------------------|
B|-----------------------------------------------------------------|
G|-7-----7-----7---3-----3-----3-----------------------------------|
D|-7-----7-----7---3-----3-----3---5-----5-----5---5-----5-----5---|
A|-5-----5-----5---1-----1-----1---5-----5-----5---5-----5-----5---|
D|-0-----0-----0-------------------5-----5-----5---5-----5-----5---|
Gtr2
e|-----------------------------------------------------------------|
B|-5-5-5-5-5-5-5-5-5-5-5-5-5-5-5-5-5-5-5-5-5-5-5-5-5-5-5-5-5-5-6-6-|
G|-7-7-7-7-7-7-7-7-7-7-7-7-7-7-7-7-7-7-7-7-7-7-7-7-7-7-7-7-7-7-7-7-|
D|-7-7-7-7-7-7-7-7-7-7-7-7-7-7-7-7-7-7-7-7-7-7-7-7-7-7-7-7-7-7-7-7-|
A|-----------------------------------------------------------------|
D|-----------------------------------------------------------------|
Gtr1
e|-----------------------------------------------------------------|
B|-----------------------------------------------------------------|
G|-7-----7-----7---3-----3-----3---5-----5-----5---5-----5-----5---|
D|-7-----7-----7---3-----3-----3---5-----5-----5---5-----5-----5---|
A|-5-----5-----5---1-----1-----1---3-----3-----3---3-----3-----3---|
D|-0-----0-----0---------------------------------------------------|
Gtr2
e|-----------------------------------------------------------------|
B|-5-5-5-5-5-5-5-5-5-5-5-5-5-5-5-5-5-5-5-5-5-5-5-5-5-5-5-5-5-5-6-6-|
G|-7-7-7-7-7-7-7-7-7-7-7-7-7-7-7-7-7-7-7-7-7-7-7-7-7-7-7-7-7-7-7-7-|
D|-7-7-7-7-7-7-7-7-7-7-7-7-7-7-7-7-7-7-7-7-7-7-7-7-7-7-7-7-7-7-7-7-|
A|-----------------------------------------------------------------|
D|-----------------------------------------------------------------|

Verse (Same as intro)

Chorus
Gtr1
e|-----------------------------------------------------------------|
B|-----------------------------------------------------------------|
G|-3-----3-----3---3-----3-----3---5-----5-----5---5-----5-----5---|
D|-3-----3-----3---3-----3-----3---5-----5-----5---5-----5-----5---|
A|-1-----1-----1---1-----1-----1---3-----3-----3---3-----3-----3---|
D|-----------------------------------------------------------------|
Gtr2
e|-1-1-1-1-1-1-1-1-1-1-1-1-1-1-1-1-0-0-0-0-0-0-0-0-0-0-0-1-1-1-0-0-|
B|-1-1-1-1-1-1-1-1-1-1-1-1-1-1-1-1-1-1-1-1-1-1-1-1-1-1-1-1-1-1-1-1-|
G|-3-3-3-3-3-3-3-3-3-3-3-3-3-3-3-3-0-0-0-0-0-0-0-0-0-0-0-0-0-0-0-0-|
D|-----------------------------------------------------------------|
A|-----------------------------------------------------------------|
D|-----------------------------------------------------------------|
Gtr1                     
e|-----------------------------------------------------------------|
B|-----------------------------------------------------------------|
G|-3-----3-----3---3-----3-----3---5-----5-----5---5---------------|
D|-3-----3-----3---3-----3-----3---5-----5-----5---5---------------|
A|-1-----1-----1---1-----1-----1---3-----3-----3---3---------------|
D|-----------------------------------------------------------------|
Gtr2                                                   3 beats on guitar
e|-1-1-1-1-1-1-1-1-1-1-1-1-1-1-1-1-0-0-0-0-0-0-0-0-0---------------|
B|-1-1-1-1-1-1-1-1-1-1-1-1-1-1-1-1-1-1-1-1-1-1-1-1-1---------------|
G|-3-3-3-3-3-3-3-3-3-3-3-3-3-3-3-3-0-0-0-0-0-0-0-0-0---------------|
D|-----------------------------------------------------------------|
A|-----------------------------------------------------------------|
D|-----------------------------------------------------------------|
                                                       
Bridge
Gtr1
e|-----------------------------------------------------------------|
B|-----------------------------------------------------------------|
G|-7-----7-----7---3-----3-----3-----------------------------------|
D|-7-----7-----7---3-----3-----3---5-----5-----5---5-----5-----5---|
A|-5-----5-----5---1-----1-----1---5-----5-----5---5-----5-----5---|
D|-0-----0-----0-------------------5-----5-----5---5-----5-----5---|
Gtr2 (Solo)
e|-----------------------------------------------------------------|
B|-----------------------------------------------------------------|
G|-----------------------------------------------------------------|
D|-12\10-10-10\8-8-8\7-8\7-7-7\5-5-5\3-5\7-7-7---5\7-7-7-----------|
A|-----------------------------------------------------------------|
D|-----------------------------------------------------------------|
Gtr1
e|-----------------------------------------------------------------|
B|-----------------------------------------------------------------|
G|-7-----7-----7---3-----3-----3---5-----5-----5---5---------------|
D|-7-----7-----7---3-----3-----3---5-----5-----5---5---------------|
A|-5-----5-----5---1-----1-----1---3-----3-----3---3---------------|
D|-0-----0-----0---------------------------------------------------|
Gtr2                                                   3 beats on guitar
e|-----------------------------------------------------------------|
B|-----------------------------------------------------------------|
G|-----------------------------------------------------------------|
D|-12\10-10-10\8-8-8\7-8\7-7-7h8-7-7h8-8\10-10-10---8\10-10-10-----|
A|-----------------------------------------------------------------|
D|-----------------------------------------------------------------|

Verse
Both guitars do Gtr1

Chorus 6x
Gtr1
e|-----------------------------------------------------------------|
B|-----------------------------------------------------------------|
G|-3-----3-----3---3-----3-----3---5-----5-----5---5-----5-----5---|
D|-3-----3-----3---3-----3-----3---5-----5-----5---5-----5-----5---|
A|-1-----1-----1---1-----1-----1---3-----3-----3---3-----3-----3---|
D|-----------------------------------------------------------------|
Gtr2
e|-----------------------------------------------------------------|
B|-6-----5---------6-----5---------6-----5---------6-----5---------|
G|-------------5---------------5---------------5---------------5---|
D|-----------------------------------------------------------------|
A|-----------------------------------------------------------------|
D|-----------------------------------------------------------------|

Chorus5x
Gtr1
e|-----------------------------------------------------------------|
B|-----------------------------------------------------------------|
G|-3-----3-----3---3-----3-----3---5-----5-----5---5-----5-----5---|
D|-3-----3-----3---3-----3-----3---5-----5-----5---5-----5-----5---|
A|-1-----1-----1---1-----1-----1---3-----3-----3---3-----3-----3---|
D|-----------------------------------------------------------------|
Gtr2
e|-----------------------------------------------------------------|
B|-6-6-6-5-5-5-----6-6-6-5-5-5-----6-6-6-5-5-5-----6-6-6-5-5-5-----|
G|-------------5-5-------------5-5-------------5-5-------------5-5-|
D|-----------------------------------------------------------------|
A|-----------------------------------------------------------------|
D|-----------------------------------------------------------------|

Chorus1x
Gtr1
e|-----------------------------------------------------------------|
B|-----------------------------------------------------------------|
G|-3-----3-----3---3-----3-----3---5-------------------------------|
D|-3-----3-----3---3-----3-----3---5-------------------------------|
A|-1-----1-----1---1-----1-----1---3-------------------------------|
D|-----------------------------------------------------------------|
Gtr2
e|-----------------------------------------------------------------|
B|-6-6-6-5-5-5-----6-6-6-5-5-5-----6-------------------------------|
G|-------------5-5-------------5-5---------------------------------|
D|-----------------------------------------------------------------|
A|-----------------------------------------------------------------|
D|-----------------------------------------------------------------|
Tap to rate this tab
# A B C D E F G H I J K L M N O P Q R S T U V W X Y Z