Song name
# A B C D E F G H I J K L M N O P Q R S T U V W X Y Z

30 Seconds To Mars - A Beautiful Lie tab

Piano Intro:
X1
e |-----------------------------|
B |--13--12----------13-12------|
G |-----------12-------------12-|
D |-----------------------------|
A |-----------------------------|
E |-----------------------------|

Instrumental intro (no vocals at this point, only guitar + drums)
X1
e |------------------------------------------------------------------|
B |------------------------------------------------------------------|
G |------------------------------------------------------------------|
D |--14--x32------15--x32--------12--x32---------14--until end-------|
A |--14-----------15-------------12--------------14------------------|
E |--12-----------13-------------10--------------12------------------|

*verse 1*

Chorus 1:
X1
e |------------------------------------------------------------------|
B |------------------------------------------------------------------|
G |------------------------------------------------------------------|
D |--14--x32------15--x32--------12--x32---------14--until end-------|
A |--14-----------15-------------12--------------14------------------|
E |--12-----------13-------------10--------------12------------------|

*verse 2*

Chorus 2:
X1
e |------------------------------------------------------------------|
B |------------------------------------------------------------------|
G |------------------------------------------------------------------|
D |--14--x32------15--x32--------12--x32---------14--until end-------|
A |--14-----------15-------------12--------------14------------------|
E |--12-----------13-------------10--------------12------------------|


e |------------------------------------------------------------|
B|--13-12-----------13-12-----------13-12------------12-13-12--|
G |-----------12---------------12---------------12-------------|
D |------------------------------------------------------------|
A |------------------------------------------------------------|
E |------------------------------------------------------------|

*verse 3*

Chorus 3:
---X2---
e |------------------------------------------------------------------|
B |------------------------------------------------------------------|
G |------------------------------------------------------------------|
D |--14--x32------15--x32--------12--x32---------14--until end-------|
A |--14-----------15-------------12--------------14------------------|
E |--12-----------13-------------10--------------12------------------|


Piano Outro:
X1
e |-----------------------------|
B |--13--12----------13-12------|
G |-----------12-------------12-|
D |-----------------------------|
A |-----------------------------|
E |-----------------------------|



Tap to rate this tab
 
# A B C D E F G H I J K L M N O P Q R S T U V W X Y Z