Song name
# A B C D E F G H I J K L M N O P Q R S T U V W X Y Z

30 Seconds To Mars - L490 tab

30 Seconds To Mars - L490

Tabbed by: Oceanic_815

Standard Tuning


Guitar 1 (starts at 0:53/ends at 2:17)

e|-----------------------------------------|
B|-----------------------------------------|
G|-----------------------------------------|
D|---9---9-10---7---7-9---9-10---10---10---| repeat 14x
A|-----7------7---7-----7------7----7------|
E|-----------------------------------------|



Guitar 2 (starts at 1:54/ends at 2:53)

e|------------------------------------|
B|------------------------------------|
G|-------------------------7----5-----|
D|---7-7-7-9-9-9-9-5-5-5-5----5---5---| repeat 10x
A|------------------------------------|
E|------------------------------------|

At 2:53 end with:

e|-----------|
B|-----------|
G|-----------|
D|---9~------|
A|---7~------|
E|-----------|



Guitar 3 (starts at 2:17/ends at 2:57)

e|------------------------------------|
B|-----13----12-13-------13----12-----|
G|--12----12-------12-12----12--------|
D|------------------------------------| repeat 7x
A|------------------------------------|
E|------------------------------------|
Tap to rate this tab
 
# A B C D E F G H I J K L M N O P Q R S T U V W X Y Z