Song name
# A B C D E F G H I J K L M N O P Q R S T U V W X Y Z

30 Seconds To Mars - Capricorn tab

Artist: 30 Seconds to Mars
Song: Capricorn (A Brand New Name)
Album: 30 Seconds to Mars
Originally Tabbed By: BlindedRhythm (E-mail: MndlessGuitarist@hotmail.com)
Re-Tabbed/Edited by: drop-c (E-mail: drop-c@hotmail.com)

\*Note*/
I found this tab, and the fills, and parts in the verse were not 
right, so I copied it and fixed all of the mistakes. Now this
tab should be perfect. Awesome song!

Tuning: Drop C (C G C F A D)

Opening
|-------------------------------------------------------|
|-------------------------------------------------------|
|-----------------------------------------------------8-|
|-0-0-0-6-x-x-x-x-x-0-0-0-6-x-0-0-0-6-x-x-x-x-x-0-0-0-x-|
|-0-0-0-6-x-x-x-x-x-0-0-0-6-x-0-0-0-6-x-x-x-x-x-0-0-0-6-|
|-0-0-0-6-x-x-x-x-x-0-0-0-6-x-0-0-0-6-x-x-x-x-x-0-0-0---|

|-----------------------------------------------------------|
|-----------------------------------------------------------|
|-----------------------------------------------------------|
|-0-0-0-6-x-x-x-x-x-0-0-0-6-x-0-0-0-6-x-x-x-x-x-x-xxx-x-x-x-|
|-0-0-0-6-x-x-x-x-x-0-0-0-6-x-0-0-0-6-x-x-x-x-x-x-xxx-x-x-x-|
|-0-0-0-6-x-x-x-x-x-0-0-0-6-x-0-0-0-6-x-x-x-x-x-x-xxx-x-x-x-|

|-------------------------------------------------------|
|-------------------------------------------------------|
|-----------------------------------------------------8-|
|-0-0-0-6-x-x-x-x-x-0-0-0-6-x-0-0-0-6-x-x-x-x-x-0-0-0-x-|
|-0-0-0-6-x-x-x-x-x-0-0-0-6-x-0-0-0-6-x-x-x-x-x-0-0-0-6-|
|-0-0-0-6-x-x-x-x-x-0-0-0-6-x-0-0-0-6-x-x-x-x-x-0-0-0---|

|---------------------------------------------------------------------|
|---------------------------------------------------------------------|
|---------------------------------------------10-10-10-10-10-10-10-10-|
|-0-0-0-6-x-x-x-x-x-0-0-0-6-x-0-0-0-6-x-x-x-x-x--x--x--x--x--x--x--x--|
|-0-0-0-6-x-x-x-x-x-0-0-0-6-x-0-0-0-6-x-x-x-x-8--8--8--8--8--8--8--8--|
|-0-0-0-6-x-x-x-x-x-0-0-0-6-x-0-0-0-6-x-x-x-x-------------------------|


1st Chorus
|---------------------------------------------------------|
|---------------------------------------------------------|
|---------------7-7-7-7-8-8-8---------------5-5-5-5-5-5-5-|
|-5-5-5-5-5-5-5-7-7-7-7-8-8-8-3-3-3-3-3-3-3-5-5-5-5-5-5-5-|
|-5-5-5-5-5-5-5-5-5-5-5-6-6-6-3-3-3-3-3-3-3-3-3-3-3-3-3-3-|
|-5-5-5-5-5-5-5---------------3-3-3-3-3-3-3---------------|

|-------------------------------------------------------|
|-------------------------------------------------------|
|---------------7-7-7-7-8-8-8----------------5-5-5-5-5/-|
|-5-5-5-5-5-5-5-7-7-7-7-8-8-8-3-3-3-3-3-3----x-x-x-x-x--|
|-5-5-5-5-5-5-5-5-5-5-5-6-6-6-3-3-3-3-3-3----3-3-3-3-3/-|
|-5-5-5-5-5-5-5---------------3-3-3-3-3-3---------------|

|---------------------------------------------------------|
|---------------------------------------------------------|
|---------------7-7-7-7-8-8-8---------------5-5-5-5-3-3-3-|
|-5-5-5-5-5-5-5-7-7-7-7-8-8-8-3-3-3-3-3-3-3-5-5-5-5-3-3-3-|
|-5-5-5-5-5-5-5-5-5-5-5-6-6-6-3-3-3-3-3-3-3-3-3-3-3-1-1-1-|
|-5-5-5-5-5-5-5---------------3-3-3-3-3-3-3---------------|

|----------------------------------------------------------------------|
|----------------------------------------------------------------------|
|----------------------------------------------20-20-20-20-19-19-19-19-|
|-1-1-1-1-1-1-1-1-1-1-1-1-1-1/8-8-8-8-8-8-8-8--x--x--x--x--x--x--x--x--|
|-1-1-1-1-1-1-1-1-1-1-1-1-1-1/8-8-8-8-8-8-8-8--18-18-18-18-17-17-17-17-|
|-1-1-1-1-1-1-1-1-1-1-1-1-1-1/8-8-8-8-8-8-8-8--------------------------|


1st Verse (w/ clean tone and delay)
|-------------------------------------------------|
|-------13----15-------13----15-------11----10----|
|-12-12----12----12-12----12----12-12----12----12-|
|-------------------------------------------------|
|-------------------------------------------------|
|-------------------------------------------------|

|-------------------------------------------------|
|-------13----15-------11----10-------13----11----|
|-12-12----12----12-12----12----12-12----12----12-|
|-------------------------------------------------|
|-------------------------------------------------|
|-------------------------------------------------|

|-------------------------------------------------|
|-------13----15-------13----15-------11----10----|
|-12-12----12----12-12----12----12-12----12----12-|
|-------------------------------------------------|
|-------------------------------------------------|
|-------------------------------------------------|

|-------------------------------------------------|
|-------------------------------------------------|
|-------------------------------------------------|
|-12-12-13-12-15-12-12-13-12-15-12-12-15-12-13-12-|
|-------------------------------------------------|
|-------------------------------------------------|



2nd Chorus
|---------------------------------------------------------|
|---------------------------------------------------------|
|---------------7-7-7-7-8-8-8---------------5-5-5-5-5-5-5-|
|-5-5-5-5-5-5-5-7-7-7-7-8-8-8-3-3-3-3-3-3-3-5-5-5-5-5-5-5-|
|-5-5-5-5-5-5-5-5-5-5-5-6-6-6-3-3-3-3-3-3-3-3-3-3-3-3-3-3-|
|-5-5-5-5-5-5-5---------------3-3-3-3-3-3-3---------------|

|-------------------------------------------------------|
|-------------------------------------------------------|
|---------------7-7-7-7-8-8-8----------------5-5-5-5-5/-|
|-5-5-5-5-5-5-5-7-7-7-7-8-8-8-3-3-3-3-3-3----x-x-x-x-x--|
|-5-5-5-5-5-5-5-5-5-5-5-6-6-6-3-3-3-3-3-3----3-3-3-3-3/-|
|-5-5-5-5-5-5-5---------------3-3-3-3-3-3---------------|

|---------------------------------------------------------|
|---------------------------------------------------------|
|---------------7-7-7-7-8-8-8---------------5-5-5-5-3-3-3-|
|-5-5-5-5-5-5-5-7-7-7-7-8-8-8-3-3-3-3-3-3-3-5-5-5-5-3-3-3-|
|-5-5-5-5-5-5-5-5-5-5-5-6-6-6-3-3-3-3-3-3-3-3-3-3-3-1-1-1-|
|-5-5-5-5-5-5-5---------------3-3-3-3-3-3-3---------------|

|-----------------------------------------------------------|
|-----------------------------------------------------------|
|-----------------------------------------------------------|
|-1-1-1-1-1-1-1-1-1-1-1-1-1-1/8-8-8-8-8-8-8-8-8-8-8-8-8-8-8-|
|-1-1-1-1-1-1-1-1-1-1-1-1-1-1/8-8-8-8-8-8-8-8-8-8-8-8-8-8-8-|
|-1-1-1-1-1-1-1-1-1-1-1-1-1-1/8-8-8-8-8-8-8-8-8-8-8-8-8-8-8-|



2nd Verse (w/ clean tone and delay)
|-------------------------------------------------|
|-------13----15-------13----15-------11----10----|
|-12-12----12----12-12----12----12-12----12----12-|
|-------------------------------------------------|
|-------------------------------------------------|
|-------------------------------------------------|

|-------------------------------------------------|
|-------13----15-------11----10-------13----11----|
|-12-12----12----12-12----12----12-12----12----12-|
|-------------------------------------------------|
|-------------------------------------------------|
|-------------------------------------------------|

|-------------------------------------------------|
|-------13----15-------13----15-------11----10----|
|-12-12----12----12-12----12----12-12----12----12-|
|-------------------------------------------------|
|-------------------------------------------------|
|-------------------------------------------------|

|-------------------------------------------------|
|-------------------------------------------------|
|-------------------------------------------------|
|-12-12-13-12-15-12-12-13-12-15-12-12-15-12-13-12-|
|-------------------------------------------------|
|-------------------------------------------------|

2nd Verse Fill
|---------------------|
|---------------------|
|---------------------|
|---------------------|
|---------------------|
|-*9/8/7/6/5/4/3/2.3*-|
NOTE: *=Natural Harmonics



3rd Chorus
|---------------------------------------------------------|
|---------------------------------------------------------|
|---------------7-7-7-7-8-8-8---------------5-5-5-5-5-5-5-|
|-5-5-5-5-5-5-5-7-7-7-7-8-8-8-3-3-3-3-3-3-3-5-5-5-5-5-5-5-|
|-5-5-5-5-5-5-5-5-5-5-5-6-6-6-3-3-3-3-3-3-3-3-3-3-3-3-3-3-|
|-5-5-5-5-5-5-5---------------3-3-3-3-3-3-3---------------|

|-------------------------------------------------------|
|-------------------------------------------------------|
|---------------7-7-7-7-8-8-8----------------5-5-5-5-5/-|
|-5-5-5-5-5-5-5-7-7-7-7-8-8-8-3-3-3-3-3-3----x-x-x-x-x--|
|-5-5-5-5-5-5-5-5-5-5-5-6-6-6-3-3-3-3-3-3----3-3-3-3-3/-|
|-5-5-5-5-5-5-5---------------3-3-3-3-3-3---------------|

|---------------------------------------------------------|
|---------------------------------------------------------|
|---------------7-7-7-7-8-8-8---------------5-5-5-5-3-3-3-|
|-5-5-5-5-5-5-5-7-7-7-7-8-8-8-3-3-3-3-3-3-3-5-5-5-5-3-3-3-|
|-5-5-5-5-5-5-5-5-5-5-5-6-6-6-3-3-3-3-3-3-3-3-3-3-3-1-1-1-|
|-5-5-5-5-5-5-5---------------3-3-3-3-3-3-3---------------|

|------------------------------------------------------|
|------------------------------------------------------|
|-----------------------------------------------10-----|
|-1-1-1-1-1-1-1-1-1-1-1-1-1-1/8-8-8-8-8-8-8-8---10--10-|
|-1-1-1-1-1-1-1-1-1-1-1-1-1-1/8-8-8-8-8-8-8-8---8---10-|
|-1-1-1-1-1-1-1-1-1-1-1-1-1-1/8-8-8-8-8-8-8-8-------10-|



Interlude
|-------------------------------------------------------|
|-------------------------------------------------------|
|-----------------------------------------------------8-|
|-0-0-0-6-x-x-x-x-x-0-0-0-6-x-0-0-0-6-x-x-x-x-x-0-0-0-x-|
|-0-0-0-6-x-x-x-x-x-0-0-0-6-x-0-0-0-6-x-x-x-x-x-0-0-0-6-|
|-0-0-0-6-x-x-x-x-x-0-0-0-6-x-0-0-0-6-x-x-x-x-x-0-0-0---|

|-------------------------------------------------------|
|-------------------------------------------------------|
|-------------------------------------------------------|
|-0-0-0-6-x-x-x-x-x-0-0-0-6-x-0-0-0-6-x-x-x-6/5/4-3/5/1-|
|-0-0-0-6-x-x-x-x-x-0-0-0-6-x-0-0-0-6-x-x-x-4/3/2-3/5/1-|
|-0-0-0-6-x-x-x-x-x-0-0-0-6-x-0-0-0-6-x-x-x-------3/5/1-|

|-------------------------------------------------------|
|-------------------------------------------------------|
|-----------------------------------------------------8-|
|-0-0-0-6-x-x-x-x-x-0-0-0-6-x-0-0-0-6-x-x-x-x-x-0-0-0-x-|
|-0-0-0-6-x-x-x-x-x-0-0-0-6-x-0-0-0-6-x-x-x-x-x-0-0-0-6-|
|-0-0-0-6-x-x-x-x-x-0-0-0-6-x-0-0-0-6-x-x-x-x-x-0-0-0---|

|----------------------------------------------------|
|----------------------------------------------------|
|----------------------------------------------------|
|-0-0-0-6-x-x-x-x-x-0-0-0-6-x-0-0-0-6-x-x-x-6/5--5/4-|
|-0-0-0-6-x-x-x-x-x-0-0-0-6-x-0-0-0-6-x-x-x-4/3--3/2-|
|-0-0-0-6-x-x-x-x-x-0-0-0-6-x-0-0-0-6-x-x-x-4/3--3/2-|



Last Chorus
|---------------------------------------------------------|
|---------------------------------------------------------|
|---------------7-7-7-7-8-8-8---------------5-5-5-5-5-5-5-|
|-5-5-5-5-5-5-5-7-7-7-7-8-8-8-3-3-3-3-3-3-3-5-5-5-5-5-5-5-|
|-5-5-5-5-5-5-5-5-5-5-5-6-6-6-3-3-3-3-3-3-3-3-3-3-3-3-3-3-|
|-5-5-5-5-5-5-5---------------3-3-3-3-3-3-3---------------|

|-------------------------------------------------------|
|-------------------------------------------------------|
|---------------7-7-7-7-8-8-8----------------5-5-5-5-5/-|
|-5-5-5-5-5-5-5-7-7-7-7-8-8-8-3-3-3-3-3-3----x-x-x-x-x--|
|-5-5-5-5-5-5-5-5-5-5-5-6-6-6-3-3-3-3-3-3----3-3-3-3-2/-|
|-5-5-5-5-5-5-5---------------3-3-3-3-3-3---------------|

|---------------------------------------------------------|
|---------------------------------------------------------|
|---------------7-7-7-7-8-8-8---------------5-5-5-5-3-3-3-|
|-5-5-5-5-5-5-5-7-7-7-7-8-8-8-3-3-3-3-3-3-3-5-5-5-5-3-3-3-|
|-5-5-5-5-5-5-5-5-5-5-5-6-6-6-3-3-3-3-3-3-3-3-3-3-3-1-1-1-|
|-5-5-5-5-5-5-5---------------3-3-3-3-3-3-3---------------|

|-----------------------------------------------------------|
|-----------------------------------------------------------|
|-----------------------------------------------------------|
|-1-1-1-1-1-1-1-1-1-1-1-1-1-1/8-8-8-8-8-8-8-8-8-8-8-8-8-8-8-|
|-1-1-1-1-1-1-1-1-1-1-1-1-1-1/8-8-8-8-8-8-8-8-8-8-8-8-8-8-8-|
|-1-1-1-1-1-1-1-1-1-1-1-1-1-1/8-8-8-8-8-8-8-8-8-8-8-8-8-8-8-|

|---------------------------------------------------------|
|---------------------------------------------------------|
|---------------7-7-7-7-8-8-8---------------5-5-5-5-5-5-5-|
|-5-5-5-5-5-5-5-7-7-7-7-8-8-8-3-3-3-3-3-3-3-5-5-5-5-5-5-5-|
|-5-5-5-5-5-5-5-5-5-5-5-6-6-6-3-3-3-3-3-3-3-3-3-3-3-3-3-3-|
|-5-5-5-5-5-5-5---------------3-3-3-3-3-3-3---------------|

|-------------------------------------------------------|
|-------------------------------------------------------|
|---------------7-7-7-7-8-8-8----------------5-5-5-5-5/-|
|-5-5-5-5-5-5-5-7-7-7-7-8-8-8-3-3-3-3-3-3----x-x-x-x-x--|
|-5-5-5-5-5-5-5-5-5-5-5-6-6-6-3-3-3-3-3-3----3-3-3-3-3/-|
|-5-5-5-5-5-5-5---------------3-3-3-3-3-3---------------|

|---------------------------------------------------------|
|---------------------------------------------------------|
|---------------7-7-7-7-8-8-8---------------5-5-5-5-3-3-3-|
|-5-5-5-5-5-5-5-7-7-7-7-8-8-8-3-3-3-3-3-3-3-5-5-5-5-3-3-3-|
|-5-5-5-5-5-5-5-5-5-5-5-6-6-6-3-3-3-3-3-3-3-3-3-3-3-1-1-1-|
|-5-5-5-5-5-5-5---------------3-3-3-3-3-3-3---------------|

|-------------------------------------------------------|
|-------------------------------------------------------|
|-------------------------------------------------------|
|-1-1-1-1-1-1-1-1-1-1-1-1-1-1/8-8-8-8-8-8-8-0-3-4-3-6-5-|
|-1-1-1-1-1-1-1-1-1-1-1-1-1-1/8-8-8-8-8-8-8-0-3-4-3-4-3-|
|-1-1-1-1-1-1-1-1-1-1-1-1-1-1/8-8-8-8-8-8-8-0-3-4-3-----|

End.
Tap to rate this tab
# A B C D E F G H I J K L M N O P Q R S T U V W X Y Z