Song name
# A B C D E F G H I J K L M N O P Q R S T U V W X Y Z

30 Seconds To Mars - Up In The Air tab

-------------------------------------------------------------------------------
                             UP IN THE AIR - 30 SECONDS TO MARS
-------------------------------------------------------------------------------
Tabbed by: frankbasscover
Guitar Lesson : http://www.youtube.com/watch?v=cGq28wCNhB8

Tuning: Standard 
Intro
e|-----------------|
B|-13-13-13-13-11--|
G|-----------------|
D|-10-10-10-10-8---|x3
A|-----------------|
E|-----------------|

e|-------------------|
B|-13-13-11-16-16-15-|
G|-------------------|
D|-10-10-8--13-13-12-|
A|-------------------|
E|-------------------|
E|-------------------|

intro
verse 1

e|-11--11--11--11--10--10--10--10---|
B|---11--11--11--11--11--11--11--11-|
G|----------------------------------|
D|----------------------------------|
A|----------------------------------|
E|----------------------------------|x4

piano part
e|-----11--10---------|
B|------------11------|
G|--------------------|
D|--------------------|
A|--------------------|
E|--0-------------2---|

Chorus
e|-----------------------------------------------------------|
B|----8--9-8---8----8--9-8----8----8--9-8---8----8--9-8------|
G|---8-------10----8-------10-----8-------10----8------10-8--|
D|-10------------10-------------10------------10-------------|
A|-----------------------------------------------------------|
E|-----------------------------------------------------------|x2

intro
verse 2 ( with pause )
e|-11-11-11-11-10-10-10-10-11-11-11-11-13-13-15-15-|
B|-11-11-11-11-11-11-11-11-11-11-11-11-11-11-11-11-|
G|-------------------------------------------------|
D|-------------------------------------------------|
A|-------------------------------------------------|
E|-------------------------------------------------|

verse 3
e|-11--11--11--11--10--10--10--10--11--11--11--11--10--10--13--13---|
B|---11--11--11--11--11--11--11--11--11--11--11--11--11--11--11--11-|
G|------------------------------------------------------------------|
D|------------------------------------------------------------------|
A|------------------------------------------------------------------|
E|------------------------------------------------------------------|

piano part
chorus x4

rhythmic chorus x2 ( 2nd guitar )
e|--------------------------------------|
B|--------------------------------------|
G|-5-5-5-8-8-8-3-3-3-10-10-10-----------|
D|----------------------------6-6-6-6-6-|
A|-3-3-3-6-6-6-1-1-1-8--8--8------------|
E|----------------------------4-4-4-4-4-|

intro

chorus ( if u want , there are it on the background )

interlude
e|-------------------------------------------------------|
B|-16-15--11----16-15--11----16-15--11/6----16-15--11/6--|
G|-------------------------------------------------------|
D|-------------------------------------------------------|
A|-------------------------------------------------------|
E|-------------------------------------------------------|

rhythmic chorus ( more times )
growing chorus ( 2nd Guitar )
e|-------------------------------------------------------------|
B|-12-12-12-12-12-12-12-12-14-14-14-14-15-15-15-15-17-17-17-17-|
G|-------------------------------------------------------------|
D|-9--9--9--9--9--9--9--9--11-11-11-11-12-12-12-12-14-14-14-14-|
A|-------------------------------------------------------------|
E|-------------------------------------------------------------| x4

last chorus of rhythmic guitar 
e|----------------------------------------------|
B|----------------------------------------------|
G|-5-5-5-8-8-8-3-3-3-10-10-10-8-8-8-8-8-8-8-8-8-|
D|----------------------------------------------|
A|-3-3-3-6-6-6-1-1-1-8--8--8--6-6-6-6-6-6-6-6-6-|
E|----------------------------------------------|

end
e|------------------------|
B|------------------------|
G|------------------------|
D|--7-----4--9-----7----4-|
A|------------------------|
E|--5-----2--7-----5----2-|

Guitar Lesson : http://www.youtube.com/watch?v=cGq28wCNhB8
My youtube channel : http://www.youtube.com/user/FrankBassCover
Tap to rate this tab
# A B C D E F G H I J K L M N O P Q R S T U V W X Y Z