Song name
# A B C D E F G H I J K L M N O P Q R S T U V W X Y Z

30 Seconds To Mars - Depuis Le Dbut tab

-------------------------------------------------------------------------------
                             Depuis Le Début - 30/Thirty Seconds to Mars
-------------------------------------------------------------------------------
Tabbed by: iNTANGiBLE29
E-mail: miloahmad@yahoo.com

Tuning: EADGBE

e|------------1--------------1-------------3-------------1-------------------|
B|------------3--------------1-------------3-------------3-------------------|
G|------------2--------------2-------------0-------------2-------------------|
D|-----0-------------3----------------------------0--------------------------|
A|----------------------------------3----------------------------------------|
E|---------------------------------------------------------------------------|

 You keep playing those above until the last time when it becomes:

e|------------1-------------1-------------3----------------------------------|
B|------------3-------------1------------------------------------------------|
G|------------2-------------2------------------------------------------------|
D|-----0-------------3-------------------------------------------------------|
A|---------------------------------3-----------------------------------------|
E|---------------------------------------------------------------------------|
Tap to rate this tab
 
# A B C D E F G H I J K L M N O P Q R S T U V W X Y Z