Song name
# A B C D E F G H I J K L M N O P Q R S T U V W X Y Z

30 Seconds To Mars - City Of Angels tab

Great Song From New 30 Seconds To mars Album "Love Lust Faith Dreams"


Standart Tuning.

Guitar 1 (0:36)

e|---------------------------------------|
B|----10--8-----7--8-----10--8----7------|
G|-----------7-----------------7---------|
D|---------------------------------------|    x3
A|---------------------------------------|
E|---------------------------------------|

Guitar 1 Last time 

e|---------------------------------------|
B|----10--8-----7--8-----10--8-----------|
G|-----------7-----------------7--9------|
D|---------------------------------------|    
A|---------------------------------------|
E|---------------------------------------|

While Guitar 2 do this:

e|----2------------------------------|
B|----3------------------------------|
G|----2------2--------4--------------|
D|----0------2--------4-----------5--|
A|-----------0--------2-----------5--|
E|--------------------------------3--|


Verse Is Just This:

.....Truth..Again............ ...Looking..
e|----2------------------------------|
B|----3------------------------------|
G|----2------2--------4--------------|
D|----0------2--------4-----------5--|   x 2 
A|-----------0--------2-----------5--|
E|--------------------------------3--|


Chours:

.....Angels..Die.....Strangers....I 
e|----2------------------------------|
B|----3------------------------------|
G|----2------2--------4--------------|
D|----0------2--------4-----------5--|   x 2 
A|-----------0--------2-----------5--|
E|--------------------------------3--|

After Chours Break:

e|---------------------------------------|
B|----10--8-----7--8-----10--8-----------|
G|-----------7-----------------7--9------|
D|---------------------------------------|    
A|---------------------------------------|
E|---------------------------------------|

.
Then Verse & Chours Again Reapet

Break (3:06)

e|---------------------------------------|
B|----10--8-----10--8--------------------|
G|-----------7------------7---9s--7------|
D|---------------------------------------|    x3
A|---------------------------------------|
E|---------------------------------------|
 

Then these Chords Till The End  :

e|----2------------------------------|
B|----3------------------------------|
G|----2------2--------4--------------|
D|----0------2--------4-----------5--|   x 2 
A|-----------0--------2-----------5--|
E|--------------------------------3--|


End With (4:19)

e|---------------------------------------|
B|----10--8-----7--8-----10--8----7------|
G|-----------7-----------------7---------|
D|---------------------------------------|    x3
A|---------------------------------------|
E|---------------------------------------|

e|---------------------------------------|
B|----10--8-----7--8-----10--8-----------|
G|-----------7-----------------7--9------|
D|---------------------------------------|    
A|---------------------------------------|
E|---------------------------------------|
 

Last Part (4:38)

e|---------------------------------------|
B|----10--8-----10--8--------------------|
G|-----------7------------7---9s--7------|
D|---------------------------------------|    
A|---------------------------------------|
E|---------------------------------------|
 

Enjoy!! Comment&Rate please.
Tap to rate this tab
 
# A B C D E F G H I J K L M N O P Q R S T U V W X Y Z