Song name
# A B C D E F G H I J K L M N O P Q R S T U V W X Y Z

30 Seconds To Mars - Pyres Of Varanasi tab

This is my first tab. I can clearly hear it, hope it's same to you guys. I'll make 
the whole song later. enjoy the intro.

  E|------------------------------------------------------|
  B|------------------------------------------------------|
  G|----------------12--14--------------------------------|
  D|--12-14-12-15-12--12----------------------------------|  6x
  A|------------------------------------------------------|
  E|------------------------------------------------------|


  E|------------------------------------------------------|
  B|------------------------------------------------------|
  G|----12--------------14--------------------------------|
  D|--12--12-15-12-14-12----------------------------------|
  A|------------------------------------------------------|
  E|------------------------------------------------------|

  repeat it
Tap to rate this tab
# A B C D E F G H I J K L M N O P Q R S T U V W X Y Z