Song name
# A B C D E F G H I J K L M N O P Q R S T U V W X Y Z

30 Seconds To Mars - City Of Angels tab

Hello everyone, here is my view on City of Angels.
enjoy =)

First part:
a)

E|---------------------------------------|
B|---------------------------------------|
G|---------------------------------------|
D|--14-16-12-15-12-16-14-12--------------|    till second part
A|---------------------------------------|
E|---------------------------------------|

or u can play this (it's the same)
b)

E|---------------------------------------|
B|---------------------------------------|
G|---------------------------------------|
D|--14-16--15--16-14---------------------|    till second part
A|-------15--15-----15-------------------|
E|---------------------------------------|

Second part:

E|---------------------------------------|
B|---------------------------------------|
G|---------------------------------------|
D|--19-17--16--17-----19-17--16----------|    x3
A|-------17----------------17------------|
E|---------------------------------------|

E|---------------------------------------|
B|---------------------------------------|
G|---------------------------------------|
D|--19-17--16--17-----19-17--------------|    
A|-------17----------------17-19---------|
E|---------------------------------------|
Tap to rate this tab
 
# A B C D E F G H I J K L M N O P Q R S T U V W X Y Z