Song name
# A B C D E F G H I J K L M N O P Q R S T U V W X Y Z

30 Seconds To Mars - Conquistador tab

CONQUISTADOR GUITAR COVER TAB - SONG BY THIRTY SECONDS TO MARS
_____________________________________________________________________________

(\) Slide Down (p) Pull Off

NOTE: all lyrics are properly timed except ones in ~'s which can be sung throughout the 
riff. Every lyric is written down along with everything played on guitar so have fun 
tried to make things easy as possible.

I recommend listening to the song and trying to play along as it helps a lot with timing 
and getting the feel of it. If you guys have any problems please comment this is my 
first tab. Submitted it once already without an account.
_____________________________________________________________________________


E|-----------------------------------------------------------------|
B|-----------------------------------------------------------------|
G|-----------------------------------------------------------------|
D|-----------------------------------------------------------------|
A|-----2p0----2-------0--2----2--0-------2p0----2-------0--2-------|
E|--0------------0--------------------0------------0------------3--|
                                      OH        OH      OH      OH

E|-----------------------------------------------------------------|
B|-----------------------------------------------------------------|
G|-----------------------------------------------------------------|
D|-----------------------------------------------------------------|
A|-----2p0----2-------0--2----2--0-------2p0----2-------0--2-------|
E|--0------------0--------------------0------------0------------3--|
                                      OH        OH      OH      OH
                       Em        G5         C5            A5
THIS IS A FIGHT TO THE DEATH OUR HOLY WAR A NEW ROMANCE A TROJAN WHORE

Em              G5           C5
WE WILL WE WILL WE WILL RISE AGAIN

A5                   Em        G5                C5              A5
THIS A FIGHT FOR THE DAY NIGHT BLACK AND WHITE A VICTORY DANCE A BURNING RIOT

Em              G5           C5     G5x3   A5x3
WE WILL WE WILL WE WILL RISE AGAIN. YEAH-AH-AH-AH!

E|----------------------------------------------------------------|
B|----------------------------------------------------------------|
G|----------------------------------------------------------------|
D|----------------------------------------------------------------|
A|--3\7---------------3\7---------------3\7--------------------0--|
E|---------0--0--0-----------0--0--0-----------0--0--0----3-------|
    HEY HEY-          SAY A PRAYER-     OH OH-            OH   OH

E|----------------------------------------------------------------|
B|----------------------------------------------------------------|
G|----------------------------------------------------------------|
D|----------------------------------------------------------------|
A|--3\7---------------3\7---------------3\7--------------------0--|
E|---------0--0--0-----------0--0--0-----------0--0--0----3-------|
    HEY HEY-          SAY A PRAYER-     OH OH-            OH   OH

                  Em       G5                 C5                A5
I AM THE I AM THE BEST SHE CLAIMED AND MORE A BATTLE SCARRED CONQUISTADOR

Em              G5           C5
WE WILL WE WILL WE WILL RISE AGAIN

A5               Em        G5                     C5              A5
THIS A FIGHT FOR LOVE LUST HATE DESIRE WE ARE THE CHILDREN OF THE GREAT EMPIRE

Em              G5           C5     G5x3   A5x3
WE WILL WE WILL WE WILL RISE AGAIN. YEAH-AH-AH-AH!

E|----------------------------------------------------------------|
B|----------------------------------------------------------------|
G|----------------------------------------------------------------|
D|----------------------------------------------------------------|
A|--3\7---------------3\7---------------3\7--------------------0--|
E|---------0--0--0-----------0--0--0-----------0--0--0----3-------|
    HEY HEY-          SAY A PRAYER-     OH OH-            OH   OH

E|----------------------------------------------------------------|
B|----------------------------------------------------------------|
G|----------------------------------------------------------------|
D|----------------------------------------------------------------|
A|--3\7---------------3\7---------------3\7--------------------0--|
E|---------0--0--0-----------0--0--0-----------0--0--0----3-------|
    HEY HEY-          SAY A PRAYER-     OH OH-            OH   OH

C5           D5      A5
HEY HEY SAY A PRAYER OH OH OH OH.

C5           D5      A5           G5x3   F#5x3
HEY HEY SAY A PRAYER OH OH OH OH. YEAH-AH-AH-AH!

E|-----------------------------------------------------------------|
B|-----------------------------------------------------------------|
G|-----------------------------------------------------------------|
D|-----------------------------------------------------------------|
A|-----2p0----2-------0--2----2--0-------2p0----2-------0--2-------|
E|--0------------0--------------------0------------0------------3--|

E|-----------------------------------------------------------------|
B|-----------------------------------------------------------------|
G|-----------------------------------------------------------------|
D|-----------------------------------------------------------------|
A|-----2p0----2-------0--2----2--0-------2p0----2-------0--2-------|
E|--0------------0--------------------0------------0------------3--|
                                         ~THIS IS A FIGHT TO DEATH~

E|-----------------------------------------------------------------|
B|-----------------------------------------------------------------|
G|-----------------------------------------------------------------|
D|-----------------------------------------------------------------|
A|-----2p0----2-------0--2----2--0-------2p0----2-------0--2-------|
E|--0------------0--------------------0------------0------------3--|
          ~OH OH OH OH OH OH OH THIS IS A FIGHT TO DEATH~

E|-----------------------------------------------------------------|
B|-----------------------------------------------------------------|
G|-----------------------------------------------------------------|
D|-----------------------------------------------------------------|
A|-----2p0----2-------0--2----2--0-------2p0----2-------0--2-------|
E|--0------------0--------------------0------------0------------3--|
          ~OH OH OH OH OH OH OH THIS IS A FIGHT TO DEATH~

E|-----------------------------------------------------------------|
B|-----------------------------------------------------------------|
G|-----------------------------------------------------------------|
D|-----------------------------------------------------------------|
A|-----2p0----2-------0--2----2--0-------2p0----2-------0--2-------|
E|--0------------0--------------------0------------0------------3--|
         ~OH OH OH OH OH OH OH THIS IS A FIGHT TO DEATH~

E|-----------------------------------------------------------------|
B|-----------------------------------------------------------------|
G|-----------------------------------------------------------------|
D|-----------------------------------------------------------------|
A|-----2p0----2-------0--2----2--0-------2p0----2-------0--2-------|
E|--0------------0--------------------0------------0------------3--|
          ~OH OH OH OH OH OH OH THIS IS A FIGHT TO DEATH~

E|----------------------------------------------------------------|
B|----------------------------------------------------------------|
G|----------------------------------------------------------------|
D|----------------------------------------------------------------|
A|--3\7---------------3\7---------------3\7--------------------0--|
E|---------0--0--0-----------0--0--0-----------0--0--0----3-------|
             ~WE WILL WE WILL WE WILL RISE AGAIN~


E|----------------------------------------------------------------|
B|----------------------------------------------------------------|
G|----------------------------------------------------------------|
D|----------------------------------------------------------------|
A|--3\7---------------3\7---------------3\7--------------------0--|
E|---------0--0--0-----------0--0--0-----------0--0--0----3-------|
             ~WE WILL WE WILL WE WILL RISE AGAIN~

E|----------------------------------------------------------------|
B|----------------------------------------------------------------|
G|----------------------------------------------------------------|
D|----------------------------------------------------------------|
A|--3\7---------------3\7---------------3\7--------------------0--|
E|---------0--0--0-----------0--0--0-----------0--0--0----3-------|
    HEY HEY-          SAY A PRAYER-     OH OH-            OH   OH

Em      G5           c5    A5
HEY HEY SAY A PRAYER OH OH OH OH.


E|-------------------------------------------------------|
B|-------------------------------------------------------|
G|-------------------------------------------------------|
D|-------------------------------------------------------|
A|---------------------------2p0----2-------0--2----2--0-|
E|------------------------0------------0-----------------|
   THIS IS A FIGHT TO THE DEATH!
Tap to rate this tab
 
# A B C D E F G H I J K L M N O P Q R S T U V W X Y Z