Song name
# A B C D E F G H I J K L M N O P Q R S T U V W X Y Z

30 Seconds To Mars - Conquistador tab

-------------------------------------------------------------------------------
                   CONQUISTADOR - THIRTY SECONDS TO MARS
                     ALBUM - LOVE LUST FAITH + DREAMS
-------------------------------------------------------------------------------
Tabbed by: Hieroh

Tuning: Half-step down

A fairly simple song to play. I didn't see any tabs on here yet that I thought seemed 
accurate, so I went ahead and taught myself. I'm pretty sure this is pretty close to if 
not 100% accurate.

I hope you enjoy this as much as I do! Once you get the hang of it it's a very fun song 
to play!

Intro

eb|---------------------------------------------------------------------------|
Bb|---------------------------------------------------------------------------|
Gb|---------------------------------------------------------------------------|
Db|---------------------------7---5-------------------------------------------|
Ab|-------7-----7-----5---7------------------7-----7-----5---7----------------|
Eb|----0-----0-----0----------------------0-----0-----0----------3~-----------| x2

Verse (no guitar)

"...a victory dance, a burning riot / we will, we will, we will rise again"
(guitar starts at about 0:43 as Jared screams "Yeahhh")

Chorus

eb|---------------------------------------------------------------------------|
Bb|---------------------------------------------------------------------------|
Gb|---------------------------------------------------------------------------|
Db|--5--5--5---7--7--7------14\--2~--------14\--2~--------14\--2~-----5~----7~|
Ab|--5--5--5---7--7--7------14\--2~--------14\--2~--------14\--2~-----5~----7~|
Eb|--3--3--3---5--5--5------12\--0~--------12\--0~--------12\--0~-----3~----5~|

eb|---------------------------------------------------------------------------|
Bb|---------------------------------------------------------------------------|
Gb|---------------------------------------------------------------------------|
Db|--------14\--2~--------14\--2~--------14\--2~-----5~----7~-----------------|
Ab|--------14\--2~--------14\--2~--------14\--2~-----5~----7~-----------------|
Eb|--------12\--0~--------12\--0~--------12\--0~-----3~----5~-----------------|

Verse 2 (no guitar)

"I am the, I am the best she claimed and more, a battle-scarred conquistador..."

Chorus 2 (guitar starts at about 1:26)

eb|---------------------------------------------------------------------------|
Bb|---------------------------------------------------------------------------|
Gb|---------------------------------------------------------------------------|
Db|--5--5--5---7--7--7------14\--2~--------14\--2~--------14\--2~-----5~----7~|
Ab|--5--5--5---7--7--7------14\--2~--------14\--2~--------14\--2~-----5~----7~|
Eb|--3--3--3---5--5--5------12\--0~--------12\--0~--------12\--0~-----3~----5~|

eb|---------------------------------------------------------------------------|
Bb|---------------------------------------------------------------------------|
Gb|---------------------------------------------------------------------------|
Db|--------14\--2~--------14\--2~--------14\--2~-----5~----7~-----------------|
Ab|--------14\--2~--------14\--2~--------14\--2~-----5~----7~-----------------|
Eb|--------12\--0~--------12\--0~--------12\--0~-----3~----5~-----------------|

eb|---------------------------------------------------------------------------|
Bb|---------------------------------------------------------------------------|
Gb|---------------------------------------------------------------------------|
Db|---10~----12~---7~-------------------5--5--5--4--4--4----------------------|
Ab|---8~-----12~---5~-------------------5--5--5--4--4--4----------------------|
Eb|---8~-----10~---5~-----x2------------3--3--3--2--2--2----------------------|
   (1:42)                            (1:54)


Bridge (1:56)

eb|---------------------------------------------------------------------------|
Bb|---------------------------------------------------------------------------|
Gb|---------------------------------------------------------------------------|
Db|---------------------------7---5-------------------------------------------|
Ab|-------7-----7-----5---7------------------7-----7-----5---7----------------|
Eb|----0-----0-----0----------------------0-----0-----0----------3~-----------|

eb|---------------------------------------------------------------------------|
Bb|---------------------------------------------------------------------------|
Gb|---------------------------------------------------------------------------|
Db|---------------------------7---5-------------------------------------------|
Ab|-------7-----7-----5---7------------------7-----7-----5---7----------------|
Eb|----0-----0-----0----------------------0-----0-----0----------0------------|

eb|---------------------------------------------------------------------------|
Bb|---------------------------------------------------------------------------|
Gb|---------------------------------------------------------------------------|
Db|---------------------------7---5-------------------------------------------|
Ab|-------7-----7-----5---7------------------7-----7-----5---7----------------|
Eb|----0-----0-----0----------------------0-----0-----0----------3~-----------| (this 
part played 4x)
   (2:11)                                                    (4th time last note ends 
with amp feedback)


Chorus 3 (2:39) (repeat previous)


Outro (3:07)


eb|---------------------------------------------------------------------------|
Bb|---------------------------------------------------------------------------|
Gb|---------------------------------------------------------------------------|
Db|---------------------------7---5-------------------------------------------|
Ab|-------7-----7-----5---7---------------------------------------------------|
Eb|----0-----0-----0----------------------------------------------------------|


************************************

| /   slide up
| \   slide down
| h   hammer-on
| p   pull-off
| ~   vibrato
| +   harmonic
| x   Mute note
| b   Bend
| pb  Pre-bend
| br  Bend release
| pbr Pre-bend release
| brb Bend release bend

************************************
Tap to rate this tab
 
# A B C D E F G H I J K L M N O P Q R S T U V W X Y Z