Song name
# A B C D E F G H I J K L M N O P Q R S T U V W X Y Z

30 Seconds To Mars - Northern Lights tab

  My very first tab (: I found it to sound correct... I hope you do as well.
And I don't think the part in the chorus that I posted is played by guitar... but I did 
my best, and I think it sounds pretty good on my guitar. I've been playing guitar for 
half my life... so yeah.


Intro:

e|----------------------------------------------------------------------------|
B|----------------------------------------------------------------------------|
G|----------------------------------------------------------------------------|
D|----------------------------------------------------------------------------|
A|---9-13-8-11-6--------9-13-8-11-6--------9-13-8-11-6--------9-13-8-11-6-----|
E|-11-----------------11-----------------11-----------------11----------------|

(That continues through the first verse)

Don't ever take a single second to breathe
They're gonna send me on a murdering spree
I can not wait to dance upon your grave
They don't even have a soul left to be saved

Hey

Chorus: (Only violin in the first chorus..)

We swam among the northern lights
And hid beyond the edge of night
We waited for the dawn to come
And sang a song to save us all

Second Verse: (no guitar, but you could add the guitar from the first verse if you wish)

I am alive I'm just playing dead
I'm gonna say what should have never been said
The giants of the world are crashing down
The end is near hear the trumpets sound

Chorus:

We swam among the northern lights
And hid beyond the edge of night
We waited for the dawn to come
And sang a song to save us all

e|---------------------------------------------------------------------------|
B|---------------------------------------------------------------------------|
G|---------------------------------------------------------------------------|
D|-------13-16-13------------13-16-13------------13-16-13--------------------|
A|---9-13--------13-9----9-13--------13-9----9-13--------13-9----------------|
E|-11------------------11------------------11--------------------------------|

(continues on through the chorus and the bridge)

Bridge:

e|---------------------------------------------------------------------------|
B|---------------------------------------------------------------------------|
G|---------------------------------------------------------------------------|
D|-------13-16-13------------13-16-13------------13-16-13--------------------|
A|---9-13--------13-9----9-13--------13-9----9-13--------13-9----------------|
E|-11------------------11------------------11--------------------------------|

(Played through entire bridge)


Intro to the last chorus:

e|---------------------------------------------------------------------------|
B|---------------------------------------------------------------------------|
G|---------------------------------------------------------------------------|
D|---------------------------------------------------------------------------|
A|---9-13-8-11-6--------9-13-8-11-6--------9-13-8-11-6--------9-13-8-11-6----|
E|-11-----------------11-----------------11-----------------11---------------|

I am alive I'm just playing dead
I am alive i'm just playing dead


Last Chorus:

Hey

e|---------------------------------------------------------------------------|
B|---------------------------------------------------------------------------|
G|---------------------------------------------------------------------------|
D|-------13-16-13------------13-16-13------------13-16-13--------------------|
A|---9-13--------13-9----9-13--------13-9----9-13--------13-9----------------|
E|-11------------------11------------------11--------------------------------|

We swam among the northern lights
And hid beyond the edge of night
We waited for the dawn to come
And sang a song to save us all

We swam among the northern lights
And hid beyond the edge of night
We waited for the dawn to come
And sang a song to save us all

Outro:

e|---------------------------------------------------------------------------|
B|---------------------------------------------------------------------------|
G|---------------------------------------------------------------------------|
D|-------13-16-13------------13-16-13------------13-16-13--------------------|
A|---9-13--------13-9----9-13--------13-9----9-13--------13-9----------------|
E|-11------------------11------------------11--------------------------------|

e|---------------------------------------------------------------------------|
B|---------------------------------------------------------------------------|
G|---------------------------------------------------------------------------|
D|-------13-16-13------------13-16-13------------13-16-13--------------------|
A|---9-13--------13-9----9-13--------13-9----9-13--------13-9----------------|
E|-11------------------11------------------11--------------------------------|

e|---------------------------------------------------------------------------|
B|---------------------------------------------------------------------------|
G|---------------------------------------------------------------------------|
D|-------13-16-13------------------------------------------------------------|
A|---9-13--------13-9----9-13--9-13-8-11-6-----------------------------------|
E|-11------------------11----11----------------------------------------------|

It's very simple... and I hope that you found it helpful :)
Tap to rate this tab
# A B C D E F G H I J K L M N O P Q R S T U V W X Y Z