Song name
# A B C D E F G H I J K L M N O P Q R S T U V W X Y Z

30 Seconds To Mars - Conquistador tab

-----------------------------------------------------------------------------
                      CONQUISTADOR - 30 SECONDS TO MARS
-----------------------------------------------------------------------------
Tabbed by: Cait :) monthebiffy97
E-mail: monthebiffy97@gmail.com



Tuning: D# A# D# G# B# E# (Half step up then Drop D#)
   Intro / Main Riff :
E#|-------------------------------------------------------------------|
B#|-------------------------------------------------------------------|
G#|-------------------------------------------------------------------|
D#|-14\\\----0-12-0-12-0--10--12--17--15----0-12-0-12-0--10--12\\-3---| x2
A#|-14\\\----0-12-0-12-0--10--12--17--15----0-12-0-12-0--10--12\\-3---|
D#|-14\\\----0-12-0-12-0--10--12--17--15----0-12-0-12-0--10--12\\-3---|
   

   Verse1: 0:14 - 0:43
   No guitar although could palm mute the piano chords:

E#|----------------------------|
B#|----------------------------|
G#|----------------------------|
D#|--0--3--8----0--3--8--5-----| x2 
A#|--0--3--8----0--3--8--5-----|
D#|--0--3--8----0--3--8--5-----|


      Chorus 0:43 - 0:58
E#|-----------------------------------------------------|
B#|-----------------------------------------------------|
G#|-----------------------------------------------------|
D#|--333-555----12\\\-0--12\\\-0--12\\\-0---333-555-----| x2
A#|--333-555----12\\\-0--12\\\-0--12\\\-0---333-555-----|
D#|--333-555----12\\\-0--12\\\-0--12\\\-0---333-555-----|

   
    Verse2: 0:58 - 1:26
E#|----------------------------|
B#|----------------------------|
G#|----------------------------|
D#|--0--3--8----0--3--8--5-----| x2 
A#|--0--3--8----0--3--8--5-----|
D#|--0--3--8----0--3--8--5-----|

    
E#|-----------------------------------------------------|
B#|-----------------------------------------------------|
G#|-----------------------------------------------------|
D#|--333-555----12\\\-0--12\\\-0--12\\\-0---333-555-----| x2
A#|--333-555----12\\\-0--12\\\-0--12\\\-0---333-555-----|
D#|--333-555----12\\\-0--12\\\-0--12\\\-0---333-555-----|

    1:43 - 1:57
E#|--------------------------|
B#|--------------------------|
G#|--------------------------|
D#|--8--10--5------333-555---|
A#|--8--10--5--x2--333-555---|
D#|--8--10--5------333-555---|

 Main Riff : 1:57 - 2:39
E#|--------------------------------------------------------------|
B#|--------------------------------------------------------------|
G#|--------------------------------------------------------------|
D#|-----0-12-0-12-0--10--12--17--15----0-12-0-12-0--10--12\\-3b--|x6
A#|-----0-12-0-12-0--10--12--17--15----0-12-0-12-0--10--12\\-3b--|
D#|-----0-12-0-12-0--10--12--17--15----0-12-0-12-0--10--12\\-3b--|

    
  "We will,we will,we will rise again" 2:39 - 3:00
E#|----------------------------------------------|
B#|----------------------------------------------|
G#|----------------------------------------------|
D#|------12\\\-0--12\\\-0--12\\\-0---333-555-----| x3
A#|------12\\\-0--12\\\-0--12\\\-0---333-555-----|
D#|------12\\\-0--12\\\-0--12\\\-0---333-555-----|

   "Hey,hey say your prayers" 3:00 - 3:06
E#|------------------------|
B#|------------------------|
G#|------------------------|
D#|--8--10--5----333-555---|
A#|--8--10--5----333-555---|
D#|--8--10--5----333-555---|

Outro Riff:

E#|-----------------------------------|
B#|-----------------------------------|
G#|-----------------------------------|
D#|-----0-12-0-12-0--10--12--17--15---|
A#|-----0-12-0-12-0--10--12--17--15---|
D#|-----0-12-0-12-0--10--12--17--15---|
 

************************************

| /   slide up
| \   slide down
| h   hammer-on
| p   pull-off
| ~   vibrato
| +   harmonic
| x   Mute note
| b   Bend
| pb  Pre-bend
| br  Bend release
| pbr Pre-bend release
| brb Bend release bend

************************************
Tap to rate this tab
# A B C D E F G H I J K L M N O P Q R S T U V W X Y Z