Song name
# A B C D E F G H I J K L M N O P Q R S T U V W X Y Z

30 Seconds To Mars - Was It A Dream chords

Highlighted       Show chord diagrams
-------------------------------------------------------------------------------
                             WAS IT A DREAM - 30 Seconds To Mars
-------------------------------------------------------------------------------
Tabbed by: JJ
E-mail: jirkujaroslav@seznam.cz

Tuning: standard

The intro is originally in D-tuning (by KieRawr_Bang@hotmail.com):

D|-----------------------------------|
A|-----------------------------------|
F|--------0--------------------------|
C|-----4---4-4--------7-----7--------|
G|--2-2--2--2-----5-5---5-5----------|
D|-----------------------------------|

D|-----------------------------------|
A|-----------------------------------|
F|--------0--------------------------|
C|-----4---4-4--------7-----9--------|
G|--2-2--2--2-----5-5---7-7----------|
D|-----------------------------------|

D|-------------------------------------------------------------|
A|-------------------------------------------------------------|
F|--------0----------------------------------------------------|
C|-----4---4-4--------7-----7------7----7-------11-------11/12-|
G|--2-2--2--2-----5-5---5-5---5-0-0--0-0--7/9-9----9-9-9-------|
D|-------------------------------------------------------------|

Here in the standard tuning:

e|------------------------------------|
B|------------------------------------|
G|------------------------------------|
D|-----2--3-2-2-------5------5~-------|
A|--0-0--0---0-----3-3-3---3----------|
E|------------------------------------|

e|------------------------------------|
B|------------------------------------|
G|------------------------------------|
D|-----2--3-2-2--------5-------7------|
A|--0-0--0---0-----3-3---3/5-5---5----|
E|------------------------------------|

e|----------------------------------------------------------------|
B|----------------------------------------------------------------|
G|----------------------------------------------------------------|
D|-----2--3-2-2--------5-----5-------5-----5-------9-------9/10---|
A|--0-0--0---0-----3-3---3-3---3-------------5/7-7---7-7-7--------|
E|-------------------------------3-3---3-3------------------------|


I think itīs better to play it with power chords, even you play it acoustically 
(as Jared often does):

      A                 C
Your defenses were on high
      A                 C     D
Your walls built deep inside
      A                 C
Yeah I'm a selfish bastard
        G             E
But at least I'm not alone
      A                 C
My intentions never change
      A                 C        D
What I want still stays the same
      A                 C
And I know what I should do
             G             E
it's time to set myself on fire


            C
Was it a dream?
            D
Was it a dream?
             A       E
Is this the only evidence that proves it
     C            D 
A photograph of you and I


      A                 C
Your reflection I've erased
      A                    C       D
Like a thousand burned out yesterdays
      A            C               G
Believe me when I say goodbye forever
        E       
Is for good


            C
Was it a dream?
            D
Was it a dream?
             A       E
Is this the only evidence that proves it
     C            D 
A photograph of you and I


repeat chorus ītil the end

      A
IN LOVE...
Tap to rate this tab
 
# A B C D E F G H I J K L M N O P Q R S T U V W X Y Z