Song name
# A B C D E F G H I J K L M N O P Q R S T U V W X Y Z

30 Seconds To Mars - Conquistador tab

Tuning HALF STEP UP, then DROP D
(you can also use a CAPO 1)
D# A# D# G# B# E#

Tabbed by Galva94

Structure:
1.  main riff 2x
2.  verse 2x (piano)
3.  interlude part 1 2x
4.  verse 2x (piano and synth)
5.  interlude part 1 2x
6.  interlude part 2 1x
7.  main riff 8x
8.  interlude part 1 3x
9.  interlude part 2 1x (only second part)
10. main riff (only first part)

A) MAIN RIFF 
e|----------------------------|---------------------------|
B|----------------------------|---------------------------|
G|----------------------------|---------------------------|
D|----------------------------|---------------------------|
A|----------------------------|---------------------------|
D|-0---12-0-12--0-10-12-17-15-|-0---12-0-12--0-10-12-3~---|

B) VERSE

Piano
e|------------------|------------------|
B|------------------|------------------|
G|------------------|------------------|
D|-0---3---8--------|-0---3---8---5----|
A|------------------|------------------|
D|-0---3---8--------|-0---3---8---5----|

Synth (verse 2 only)
e|----------------------------|----------------------------|
B|----------------------------|----------------------------|
G|----------------------------|----------------------------|
D|-12-14-15-12----------------|----------------------------|
A|----------------------------|----------------------------|
D|----------------------------|----------------------------|


C) INTERLUDE 

part 1 (2x)
e|------------------------------|---------------------------|
B|------------------------------|---------------------------|
G|------------------------------|---------------------------|
D|------------------------------|---------------------------|
A|------------------------------|---------------------------|
D|-12/0--0--0--0-12/0--0--0--0--|-12/0--0--0--0--3--3--5--5-|

part2
e|-------------------------|------------------------|
B|-------------------------|------------------------|
G|-------------------------|------------------------|
D|-8--8--8--8--8--8--10~---|-5--5--5--5--5--5--3~---|
A|-8--8--8--8--8--8--10~---|-5--5--5--5--5--5--3~---|
D|-8--8--8--8--8--8--10~---|-5--5--5--5--5--5--3~---|

e|-------------------------|------------------------|
B|-------------------------|------------------------|
G|-------------------------|------------------------|
D|-8--8--8--8--8--8--10~---|-5--5--5--5--3~----2~---|
A|-8--8--8--8--8--8--10~---|-5--5--5--5--3~----2~---|
D|-8--8--8--8--8--8--10~---|-5--5--5--5--3~----2~---|
Tap to rate this tab
# A B C D E F G H I J K L M N O P Q R S T U V W X Y Z