Song name
# A B C D E F G H I J K L M N O P Q R S T U V W X Y Z

30 Seconds To Mars - City Of Angels tab

Standard Tuning

Intro
Synth Riff Throughout Song
e-------------------------|
b-77----88----77----------|
g----77----77----99-77-99-|
d-------------------------|
a-------------------------|
e-------------------------|

Synth
(Kinda iffy but I like how it sounds.  Use your thumb to hold the low e notes
if you want to play them the way it's tabbed out.  Notes in parenthesis are optional)
e-(-0~----0~----0~------0~------|
b---5~----3~----5~---7--3~------|
g---6~----4~----6~------4~------|
d---7~----5~----7~------5~------|
a-(-7~----5~----7~------5~------|
e-(-5~----3~----5~------3~------|

Piano
e--------------------------|
b-10-8---7-8---10-8---7----|
g------7------------7------|
d--------------------------|
a--------------------------|
e--------------------------|

Piano Intro/Verse/Chorus
e---------------------|
b-7~---5~---7~---3~---|
g-7~---6~---7~---4~---|
d-7~---7~---9~---5~---|
a-5~---7~---9~---5~---|
e-0~---5~---7~---3~---|

Verse 2
Viola (Playing in octaves may sound weird.  Play how you feel sounds best, I guess)
e-14-15-15-15-15--14-15-14-12-12-12-12--14-15-14-14-14-14--14-15-14---------|
b--x--x--x--x--x---x--x--x--x--x--x--x---x--x--x--x--x--x---x--x--x---------|
g-11-12-12-12-12--11-12-11--9--9--9--9--11-12-11-11-11-11--11-12-11---------|
d-------------------------------------------------------------------7-7-7-7-|
a-------------------------------------------------------------------x-x-x-x-|
e-------------------------------------------------------------------5-5-5-5-|

Chorus 2/Guitar Riff A
e---------------------------------|
b-8-7-8-7-8-7-8-7-8-7-8-7-8-7-----|
g-----------------------------9-7-|    Repeat
d---------------------------------|  as needed
a---------------------------------|
e---------------------------------|

Bridge
Synth
e-9----9----9--------9----9----9----9-10-12-|
b---12---12---12-10----12---12---12---------|
g-------------------------------------------|
d-------------------------------------------|
a-------------------------------------------|
e-------------------------------------------|

Guitar/Piano
e----------------------------|
b-10---8---10---8------------|
g--------7--------7-8br/7~---|
d----------------------------|
a----------------------------|
e----------------------------|

"I Am Home..."
Guitar Riff B
e----------------------12-12-12-12-14-14-14-14-14------------------------12-12-12-12----------------|
b----------15-15-15-15---------------------------------------15-15-15-15-------------15-15-15-15-15-|
g-14-14-14------------------------------------------14-14-14----------------------------------------|
d---------------------------------------------------------------------------------------------------|
a---------------------------------------------------------------------------------------------------|
e---------------------------------------------------------------------------------------------------|

e----------------------12-12-12-12-14-14-14-14-14------------------------12-12-12-12----------17-17-|
b----------15-15-15-15---------------------------------------15-15-15-15-------------15-15-15-------|
g-14-14-14------------------------------------------14-14-14----------------------------------------|
d---------------------------------------------------------------------------------------------------|
a---------------------------------------------------------------------------------------------------|
e---------------------------------------------------------------------------------------------------|

Final part of song is a culmination of verses and riffs.  Know when to play which part and
you're pretty much set.
Tap to rate this tab
# A B C D E F G H I J K L M N O P Q R S T U V W X Y Z