Song name
# A B C D E F G H I J K L M N O P Q R S T U V W X Y Z

30 Seconds To Mars - Conquistador tab

-------------------------------------------------------------------------------
                 Conquistador - Thirty Seconds to Mars
-------------------------------------------------------------------------------
Tabbed by: richardpcont
E-mail: hobokoala51@gmail.com

Thanks for checking out this tab. Be sure to rate and leave a comment if you notice any 
mistakes. Also, make sure you read all captions presented so that the tablature can be 
properly portrayed.

Tuning: Half-Step Down
Intro: Listen for rhythm.
d#|-----------------------------------------------------------------------------|
A#|-----------------------------------------------------------------------------|
F#|-----------------------------------------------------------------------------|
C#|-----------------------------------------------------------------------------|
G#|----------------------------------------------------------12-----10----------|
D#|---------0-------12---0---12------0-----10-----12----------------------------|

d#|-----------------------------------------------------------------------------|
A#|-----------------------------------------------------------------------------|
F#|-----------------------------------------------------------------------------|
C#|-----------------------------------------------------------------------------|
G#|-----------------------------------------------------------------------------|
D#|---------0--------12---0---12------0-----10-----12-----3---------------------|
(Play entire progression above twice. Don't play last note on the last time around.)

Verse: (No guitar until very end of verse. These are played as triplets.)
d#|-----------------------------------------------------------------------------|
A#|-----------------------------------------------------------------------------|
F#|-----------------------------------------------------------------------------|
C#|-------------------------------5----5----5-------7----7----7-----------------|
G#|-------------------------------5----5----5-------7----7----7-----------------|
D#|-------------------------------3----3----3-------5----5----5-----------------|

Chorus One:
d#|-----------------------------------------------------------------------------|
A#|-----------------------------------------------------------------------------|
F#|-----------------------------------------------------------------------------|
C#|-----------------------------------------------------------------------------|
G#|------------2----2----2-------------------2----2----2------------------------|
D#|----12\----0----0----0-----------12\----0----0----0--------------------------|

d#|-----------------------------------------------------------------------------|
A#|-----------------------------------------------------------------------------|
F#|-----------------------------------------------------------------------------|
C#|-----------------------------------------------------------------------------|
G#|------------2----2----2-----------5----5--------7----7-----------------------|
D#|----12\----0----0----0-----------3----3--------5----5------------------------|
(Place through chorus above twice.)

Verse: (No guitar until very end of verse. These are played as triplets.)
d#|-----------------------------------------------------------------------------|
A#|-----------------------------------------------------------------------------|
F#|-----------------------------------------------------------------------------|
C#|-------------------------------5----5----5-------7----7----7-----------------|
G#|-------------------------------5----5----5-------7----7----7-----------------|
D#|-------------------------------3----3----3-------5----5----5-----------------|

Chorus Two (Part One):
d#|-----------------------------------------------------------------------------|
A#|-----------------------------------------------------------------------------|
F#|-----------------------------------------------------------------------------|
C#|-----------------------------------------------------------------------------|
G#|------------2----2----2-------------------2----2----2------------------------|
D#|----12\----0----0----0-----------12\----0----0----0--------------------------|

d#|-----------------------------------------------------------------------------|
A#|-----------------------------------------------------------------------------|
F#|-----------------------------------------------------------------------------|
C#|-----------------------------------------------------------------------------|
G#|------------2----2----2-----------5----5--------7----7-----------------------|
D#|----12\----0----0----0-----------3----3--------5----5------------------------|
(Play the part above twice.)
Part Two of Chorus:
d#|-----------------------------------------------------------------------------|
A#|-----------------------------------------------------------------------------|
F#|-----------------------------------------------------------------------------|
C#|---10---10---10----10---10---10------------12-----12-------------------------|
G#|---10---10---10----10---10---10------------12-----12-------------------------|
D#|---8-----8-----8-----8-----8-----8-----------10-----10-----------------------|

d#|-----------------------------------------------------------------------------|
A#|-----------------------------------------------------------------------------|
F#|-----------------------------------------------------------------------------|
C#|---7-----7-----7-----7-----7-----7-----7-----7-------------------------------|
G#|---7-----7-----7-----7-----7-----7-----7-----7-------------------------------|
D#|---5-----5-----5-----5-----5-----5-----5-----5-------------------------------|

d#|-----------------------------------------------------------------------------|
A#|-----------------------------------------------------------------------------|
F#|-----------------------------------------------------------------------------|
C#|---10---10---10----10---10---10------------12-----12-------------------------|
G#|---10---10---10----10---10---10------------12-----12-------------------------|
D#|---8-----8-----8-----8-----8-----8-----------10-----10-----------------------|

d#|-----------------------------------------------------------------------------|
A#|-----------------------------------------------------------------------------|
F#|-----------------------------------------------------------------------------|
C#|---7-----7-----7-----7-------------------------------------------------------|
G#|---7-----7-----7-----7---------5----5----5---------4----4----4---------------|
D#|---5-----5-----5-----5---------3----3----3---------2----2----2---------------|
(Last two chords are played triplets.)
Bridge: Guitar One (Same as Intro. Listen for certain inflections or cut-off notes.)
d#|-----------------------------------------------------------------------------|
A#|-----------------------------------------------------------------------------|
F#|-----------------------------------------------------------------------------|
C#|-----------------------------------------------------------------------------|
G#|----------------------------------------------------------12-----10----------|
D#|---------0-------12---0---12------0-----10-----12----------------------------|

d#|-----------------------------------------------------------------------------|
A#|-----------------------------------------------------------------------------|
F#|-----------------------------------------------------------------------------|
C#|-----------------------------------------------------------------------------|
G#|-----------------------------------------------------------------------------|
D#|---------0--------12---0---12------0-----10-----12-----3---------------------|
(Guitar one plays the part above six times.)
Guitar Two: (These are played as triplets.)
d#|-----------------------------------------------------------------------------|
A#|-----------------------------------------------------------------------------|
F#|--------9--------------11-------------12--------------14---------------------|
C#|-----------(x12)-----------(x12)------------(x12)----------(x12)-------------|
G#|-------7---------------9--------------10--------------12---------------------|
D#|-----------------------------------------------------------------------------|

d#|-----------------------------------------------------------------------------|
A#|-----------------------------------------------------------------------------|
F#|-------16---------------17---------------19---------------21-----------------|
C#|------------(x12)-----------(x12)------------(x12)-----------(x12)-----------|
G#|------14---------------15---------------17---------------19------------------|
D#|-----------------------------------------------------------------------------|
Chorus Three:
d#|-----------------------------------------------------------------------------|
A#|-----------------------------------------------------------------------------|
F#|-----------------------------------------------------------------------------|
C#|-----------------------------------------------------------------------------|
G#|------------2----2----2-------------------2----2----2------------------------|
D#|----12\----0----0----0-----------12\----0----0----0--------------------------|

d#|-----------------------------------------------------------------------------|
A#|-----------------------------------------------------------------------------|
F#|-----------------------------------------------------------------------------|
C#|-----------------------------------------------------------------------------|
G#|------------2----2----2-----------5----5--------7----7-----------------------|
D#|----12\----0----0----0-----------3----3--------5----5------------------------|
(The part above is played three times.)
Part Two of Chorus:
d#|-----------------------------------------------------------------------------|
A#|-----------------------------------------------------------------------------|
F#|-----------------------------------------------------------------------------|
C#|---10---10---10----10---10---10------------12-----12-------------------------|
G#|---10---10---10----10---10---10------------12-----12-------------------------|
D#|---8-----8-----8-----8-----8-----8-----------10-----10-----------------------|

d#|-----------------------------------------------------------------------------|
A#|-----------------------------------------------------------------------------|
F#|-----------------------------------------------------------------------------|
C#|---7-----7-----7-----7-------------------------------------------------------|
G#|---7-----7-----7-----7---------5----5----5---------4----4----4---------------|
D#|---5-----5-----5-----5---------3----3----3---------2----2----2---------------|
Outro: (Same as Intro.)
d#|-----------------------------------------------------------------------------|
A#|-----------------------------------------------------------------------------|
F#|-----------------------------------------------------------------------------|
C#|-----------------------------------------------------------------------------|
G#|----------------------------------------------------------12-----10----------|
D#|---------0-------12---0---12------0-----10-----12----------------------------|

************************************

| /   slide up
| \   slide down
| h   hammer-on
| p   pull-off
| ~   vibrato
| +   harmonic
| x   Mute note
| b   Bend
| pb  Pre-bend
| br  Bend release
| pbr Pre-bend release
| brb Bend release bend

************************************
Tap to rate this tab
# A B C D E F G H I J K L M N O P Q R S T U V W X Y Z