Song name
# A B C D E F G H I J K L M N O P Q R S T U V W X Y Z

30 Seconds To Mars - Do Or Die tab

I noticed there isn't a guitar tab for do or die and I really wanted to learn the riff 
in the intro and chorus, so I worked it out and I think this works it's pretty easy, I 
put the chords in as well to help with the timings :)

Tuning: Standard

     D                        G                     Bm
e|-----------------------------------------------------------------------|
B|-------7--10--8-7--8-10-8-7--8-7--10--8-7--8-10-8-7--8-7-10--8-7--8-10-|
G|---7-9-----------------------------------------------------------------|
D|-----------------------------------------------------------------------|
A|-----------------------------------------------------------------------|
E|-----------------------------------------------------------------------|

       A
e|---------------------------------------------------------------------|
B|-8--7--8-7-10--8-7--8-10-10-10-10-10---------------------------------|
G|---------------------------------------------------------------------|
D|---------------------------------------------------------------------|
A|---------------------------------------------------------------------|
E|---------------------------------------------------------------------|

And then during the verse I just play this continuously

e|---------------------------------|  Play 4 times, cut out before the "time
B|-7-7-7-7-7-7-7-7-7-7-7-7-5-5-5-5-|  to do or die" on the 4th
G|---------------------------------|

Just before the chorus play this variation
e|-------------------------------------|
B|-7-7-7-7-7-7-7-8-8-8-8-8-10-10-10-10-|
G|-------------------------------------|

Next is just a repeat of the first riff again, hope this worked for you guys!
Tap to rate this tab
# A B C D E F G H I J K L M N O P Q R S T U V W X Y Z