Song name
# A B C D E F G H I J K L M N O P Q R S T U V W X Y Z

30 Seconds To Mars - City Of Angels tab

-------------------------------------------------------------------------------
                             City of Angels - 30 Seconds to Mars
-------------------------------------------------------------------------------
Tabbed by: Marvin395
E-mail:

Tuning: Standard
Band: 30 Seconds to Mars
Song: City of Angels
Album: Love, Lust, Faith + Dreams, 2013

This is pretty much the way I play the song. I'm not really sure about the end but this 
is what I came up with. It's a really easy song I think. Enjoy!

guitar starts at: 0:36

e|----------------------------------------------------------------------------|
B|--10--8-----7--8----10--8-----7--(x3)---10--8-----7--8----10--8--------(x1)-|
G|---------7-----------------7-------------------7-----------------7--9-------|
D|----------------------------------------------------------------------------|
A|----------------------------------------------------------------------------|
E|----------------------------------------------------------------------------|

e|---2-----0------------------------------------------------------------------|
B|---3-----0------------------------------------------------------------------|
G|---2-----2-----4---------------(x2)--let it ring----------------------------|
D|---0-----2-----4-----5------------------------------------------------------|
A|---------0-----2-----5------------------------------------------------------|
E|---------------------3------------------------------------------------------|

e|------------------------------------------------------------------------------|
B|------8-7--8-7--8-7--8-7--8-7--8-7--8-7---------------------------------------|
G|-----------------------------------------9-7-------(x4)-----------------------|
D|------------------------------------------------------------------------------|
A|------------------------------------------------------------------------------|
E|------------------------------------------------------------------------------|

e|------------------------------------------------------------------------------|
B|--10--8-----7--8----10--8-----7--------10--8-----7--8----10--8----------------|
G|---------7-----------------7-------------------7-----------------7--9---------|
D|------------------------------------------------------------------------------|
A|------------------------------------------------------------------------------|
E|------------------------------------------------------------------------------|

e|---2-----0------------------------------------------------------------------|
B|---3-----0------------------------------------------------------------------|
G|---2-----2-----4---------------(x2)--let it ring----------------------------|
D|---0-----2-----4-----5------------------------------------------------------|
A|---------0-----2-----5------------------------------------------------------|
E|---------------------3------------------------------------------------------|

e|----------------------------------------------|
B|------8-7--8-7--8-7--8-7--8-7--8-7--8-7-------|
G|-----------------------------------------9-7--|       (x4)
D|----------------------------------------------|
A|----------------------------------------------|
E|----------------------------------------------|


e|------------------------------------------------------------------------------|
B|--10--8-----7--8----10--8-----7--------10--8-----7--8----10--8----------------|
G|---------7-----------------7-------------------7-----------------7--9---------|
D|------------------------------------------------------------------------------|
A|------------------------------------------------------------------------------|
E|------------------------------------------------------------------------------|


e|-----------------------------------|
B|---10---8---------10---8-----------|
G|------------7--------------7---7b--|     (x2)
D|-----------------------------------|
A|-----------------------------------|
E|-----------------------------------|

e|----------------------------12-12-12-12---14-14-14-14-14----------------------|
B|--------------15-15-15-15-----------------------------------------------------|
G|---14-14-14-------------------------------------------------------------------|
D|------------------------------------------------------------------------------|
A|------------------------------------------------------------------------------|
E|------------------------------------------------------------------------------|

e|---------------------------12-12-12-12----------------------------------------|
B|--------------15-15-15-15---------------15-15-15-15-15------------------------|
G|---14-14-14-------------------------------------------------------------------|
D|------------------------------------------------------------------------------|
A|------------------------------------------------------------------------------|
E|------------------------------------------------------------------------------|

e|----------------------------12-12-12-12---14-14-14-14-14----------------------|
B|--------------15-15-15-15-----------------------------------------------------|
G|---14-14-14-------------------------------------------------------------------|
D|------------------------------------------------------------------------------|
A|------------------------------------------------------------------------------|
E|------------------------------------------------------------------------------|

e|---------------------------12-12-12-12-------------17-17--|
B|--------------15-15-15-15---------------15-15-15----------|
G|---14-14-14-----------------------------------------------|     (x2)
D|----------------------------------------------------------|
A|----------------------------------------------------------|
E|----------------------------------------------------------|

e|------------------------------------------------------------------------------|
B|------8-7--8-7--8-7--8-7--8-7--8-7--8-7---------------------------------------|
G|-----------------------------------------9-7-------(x4)-----------------------|
D|------------------------------------------------------------------------------|
A|------------------------------------------------------------------------------|
E|------------------------------------------------------------------------------|

e|----------------------------------------------------------------------------|
B|--10--8-----7--8----10--8-----7--(x3)---10--8-----7--8----10--8--------(x1)-|
G|---------7-----------------7-------------------7-----------------7--9-------|
D|----------------------------------------------------------------------------|
A|----------------------------------------------------------------------------|
E|----------------------------------------------------------------------------|

e|------------------------------------------------------------------------------|
B|--10--8-----7--8----10--8-----7--------10--8-----7--8----10--8----------------|
G|---------7-----------------7-------------------7-----------------7--9---------|
D|------------------------------------------------------------------------------|
A|------------------------------------------------------------------------------|
E|------------------------------------------------------------------------------|

e|------------------------------------------------------------------------------|
B|---8--7-----------------------------------------------------------------------|
G|---------9--7--9----9\2-------------------------------------------------------|
D|------------------------------------------------------------------------------|
A|------------------------------------------------------------------------------|
E|------------------------------------------------------------------------------|

Please post for corrections. If you know the correct tabs than post it so I can improve my tab.

************************************

| /   slide up
| \   slide down
| h   hammer-on
| p   pull-off
| ~   vibrato
| +   harmonic
| x   Mute note
| b   Bend
| pb  Pre-bend
| br  Bend release
| pbr Pre-bend release
| brb Bend release bend

************************************
Tap to rate this tab
# A B C D E F G H I J K L M N O P Q R S T U V W X Y Z