Song name
# A B C D E F G H I J K L M N O P Q R S T U V W X Y Z

303infinity - Fists Of Fury tab

"Fists of Fury"
From www.303infinity.com
Tabbed by: Robert Engleberth & Josh Johnson (Magic_Lover_98@yahoo.com)

Part 1
1:----9-8---------------
2:--6-----9-6-----------
3:8---------------------
4:----------------------
5:----------------------
6:----------------------

Part 2
1:--8-6---6-8-----------
2:6-----9-----6---------
3:----------------------
4:----------------------
5:----------------------
6:----------------------

Song Structure:
---> Part 1
---> Part 2
---> Repeat
Tap to rate this tab
# A B C D E F G H I J K L M N O P Q R S T U V W X Y Z