Guitaretab - guitar tabs
Song name
# A B C D E F G H I J K L M N O P Q R S T U V W X Y Z

31 Minutos - Equilibrio Espiritual tab

-------------------------------------------------------------------------------
			     Equilibrio espiritual - Chancho en piedra (31 minutos)
-------------------------------------------------------------------------------
Tabbed by me xD!

Tuning(Afinación): standard (EADGBe, Mi La Re Sol Si Mi)

intro: 
desde el espacio 15 hacia abajo en la sexta cuerda para iniciar la canción :)
E|--15\-----------|

Verso:
primero:
e|---------------------------------|
B|---------------------------------|
G|------------7--------------------|
D|----9-----7---9-9-----7----------|
A|------7h9---------7h9---9-7------|
E|-7-------------------------------|
luego:
e|---------------------------------|
B|---------------------------------|
G|------------7--------------------|
D|----9-----7---9-9-----7-----7----|
A|------7h9---------7h9---7h9------|
E|-7-------------------------------|

Coro (soy genial..):
e|--------------------------------------------------------|
B|--------------------------------------------------------|
G|------------------(inmortaaal..)------------------------|
D|--7-7--7-7---------7-5-2-----------2-2--2-2-------------|
A|--7-7--7-7--(x2)---7-5-2-----------2-2--2-2-(x2)--------|
E|--5-5--5-5---------5-3-0-----------0-0--0-0-------------|

post coro (nunca mas nunca...):

e|-------------------------------------------------------------------|
B|-------------------------------------------------------------------|
G|-------------------------------------------------------------------|
D|-------------------------------------------------------------------|
A|--4-4-(2)-4-4--(4)-4-4-2-4-4--(4)-5-5-(3)-5-5-(5)-5-5-(3)-5-5------|
E|-------------------------------------------------------------------|

e|-------------------------------------------------------------------|
B|-------------------------------------------------------------------|
G|---------------------------------------11-11-11-11-11-11-----------|
D|---------------------------------------11-11-11-11-11-11-----------|
A|-(5)-7-7-(5)-7-7-(5)-7-7-(5)-7-7-(7)-9--9--9--9--9--9--9-----------|
E|-------------------------------------------------------------------|
ahi tocan el coro denuevo :D y despues viene esto:
[ Tab from: http://www.guitaretab.com/numeric/31-minutos/193920.html ]
esto xD! (post coro, previo al final):
e|-------------------------------------------------------------------|
B|-------------------------------------------------------------------|
G|-------------------------------------------------------------------|
D|-------------------------------------------------------------------|
A|--4-4-(2)-4-4--(4)-4-4-2-4-4--(4)-5-5-(3)-5-5-(5)-5-5-(3)-5-5------|
E|-------------------------------------------------------------------|

e|-------------------------------------------------------------------|
B|-------------------------------------------------------------------|
G|-------------------------------------------------------------------|
D|-------------------------------------------------------------------|
A|-(5)-7-7-(5)-7-7-(5)-7-7-(5)-7-7-(7)-9-9-(7)-9-9-(7)-9-9-(7)-9-9---|
E|-------------------------------------------------------------------|

e|-------------------------------------------------|
B|-------------------------------------------------|
G|-------------------------------------------------|
D|-------------------------------------------------|
A|-(9)-10-10-(8)-10-10-(8)-10-10-(8)-10-10-(10)----|
E|-------------------------------------------------|

e|-------------------------------------------------|
B|-------------------------------------------------|
G|-------------------------------------------------|
D|-------------------------------------------------|
A|-12-12-(10)-12-12-(10)-12-12-(10)-12-12-(12)-----|
E|-------------------------------------------------|

e|-------------------------------------------------|
B|-------------------------------------------------|
G|-------------------------------------------------|
D|-------------------------------------------------|
A|-14-14-(12)-14-14-(12)-14-14-(12)-14-14-(14)-----|
E|-------------------------------------------------|

e|-------------------------------------------------|
B|-------------------------------------------------|
G|-------------------------------------------------|
D|-------------------------------------------------|
A|-16-16-(14)-16-16-(16)-19-19-(17)-19-19-(19)-----|
E|-------------------------------------------------|


final:
e|---------------------------------|
B|---------------------------------|
G|------------7--------------------|
D|----9-----7---9\-----------------|
A|------7h9------------------------|
E|-7-------------------------------|


| /  slide up
| \  slide down
| h  hammer-on
| p  pull-off
| ~  vibrato
| +  harmonic
| x  Mute note
===============================================================================
Related for Equilibrio Espiritual tab
×
Best way to learn
"Equilibrio Espiritual"