Song name
# A B C D E F G H I J K L M N O P Q R S T U V W X Y Z

31 Minutos - Equilibrio Espiritual tab

Tuning: Standard

Intro y estrofa 1:

|-------7--------7-------------------|
|-------7--------7-------------------|
|-------7--------7-------------------|
|-------7------7-7-----7------7------|
|----------7h9-----7h9----7h9---9-7--|
|-15\7-------------------------------|

|-------7--------7-------------------|
|-------7--------7-------------------|
|-------7--------7-------------------|
|-------7------7-7-----7------7------|
|----------7h9-----7h9----7h9---9-7--|
|----7-------------------------------|



Coro:

       A
Soy genial

Sí, el es genial
      E
inmortal,

ya no existen ruedas chiquitas.


Estrofa 2:

|-------7--------7-------------------|
|-------7--------7-------------------|
|-------7--------7-------------------|
|-------7------7-7-----7------7------|
|----------7h9-----7h9----7h9---9-7--|
|-15\7-------------------------------|

|-------7--------7-------------------|
|-------7--------7-------------------|
|-------7--------7-------------------|
|-------7------7-7-----7------7------|
|----------7h9-----7h9----7h9---9-7--|
|----7-------------------------------|



Coro:
        A
Soy genial

sí, el es genial,
      E
inmortal, ya no existen las rueditas
        A
Soy genial

sí, el es genial,
      E
inmortal, ya no existen las rueditas


Post coro (nunca mas nunca...):
|-------------------------------------------------------------------|
|-------------------------------------------------------------------|
|-------------------------------------------------------------------|
|-------------------------------------------------------------------|
|--4-4-4-2-4--2-4-4-4-2-4--4-5-5-5-4-5--4-5-5-5-4-5-----------------|
|-------------------------------------------------------------------|


|-------------------------------------------------------------------|
|-------------------------------------------------------------------|
|-------------------------------------------------------------------|
|-------------------------------------------------------------------|
|--5-7-7-7-5-7--5-7-7-7-5-7--7-99999999999999-----------------------|
|-------------------------------------------------------------------|



|-------7--------7-------------------|
|-------7--------7-------------------|
|-------7--------7-------------------|
|-------7------7-7-----7------7------|
|----------7h9-----7h9----7h9---9-7--|
|-15\7-------------------------------|

|-------7--------7-------------------|
|-------7--------7-------------------|
|-------7--------7-------------------|        X2
|-------7------7-7-----7------7------|
|----------7h9-----7h9----7h9---9-7--|
|----7-------------------------------|



        A
Soy genial

sí, el es genial,
      E
inmortal, ya no existen las rueditas
        A
Soy genial

sí, el es genial,
      E
inmortal, ya no existen las rueditas


Post coro final:


|-------------------------------------------------------------------|
|-------------------------------------------------------------------|
|-------------------------------------------------------------------|
|-------------------------------------------------------------------|
|--4-4-4-2-4--2-4-4-4-2-4--4-5-5-5-4-5--4-5-5-5-4-5-----------------|
|-------------------------------------------------------------------|


|-------------------------------------------------------------------|
|-------------------------------------------------------------------|
|-------------------------------------------------------------------|
|-------------------------------------------------------------------|
|--5-7-7-7-5-7--5-7-7-7-5-7---7-9-9-9-7-9--7-9-9-9-7-9--------------|
|-------------------------------------------------------------------|


|-------------------------------------------------------------------|
|-------------------------------------------------------------------|
|-------------------------------------------------------------------|
|-------------------------------------------------------------------|
|-------------------------------------------------------------------|
|--3-3-3-2-3--2-3-3-3-2-3---3-5-5-5-3-5--3-5-5-5-3-5----------------|


|-------------------------------------------------------------------|
|-------------------------------------------------------------------|
|-------------------------------------------------------------------|
|-------------------------------------------------------------------|
|------------------------------55555555---7777777-------------------|
|--5-7-7-7-5-7--5-7-7-7-5-7--7--------------------------------------|


|--------------------------|
|--------------------------|
|---------7----------------|
|-------9------7----9/-----|
|----------7h9-------------|
|-15\7---------------------|




Espero que les sirva ;)

Dudas a laa.xiio@hotmail.com

Tap to rate this tab
# A B C D E F G H I J K L M N O P Q R S T U V W X Y Z