Song name
# A B C D E F G H I J K L M N O P Q R S T U V W X Y Z

31 Minutos - Tema Central Del Noticiero tab

----------------------------------|
----------------------------------|
----------6---------6-------------|
--4--6--4---4--6--4---4--6--4---4-|
------------------------------6---|
----------------------------------|

----------------------------------|
----------------------------------|
----------6---------6-------------|
--4--6--4---4--6--4---4--6--4---4-|
------------------------------6---|
----------------------------------|
Tap to rate this tab
 
# A B C D E F G H I J K L M N O P Q R S T U V W X Y Z