Song name
# A B C D E F G H I J K L M N O P Q R S T U V W X Y Z

311 - Coda tab

Help us improve GuitareTab! Take a short survey!
Artist: 311
Song: Coda
Artist: 311
Album: Evolver (2003)
Bassist: P-Nut
Tuning: E-A-D-G-B-E

Intro:
E|------------------------------------------------------|
B|------------------------------------------------------|
G|--------17-------17-------------12----12h14p12----12--|
D|-----14-------14-------------14----14----------14-----|
A|--15-------14-------12~-------------------------------|
E|------------------------------------------------------|

E|------------------------------------------|
B|------------------------------------------|
G|--------17-------17-------------12----14--|
D|-----14-------14-------------14----14-----|
A|--15-------14-------12~-------------------|
E|------------------------------------------|

E|------------------------------------------------------|
B|------------------------------------------------------|
G|--------17-------17-------------12----12h14p12----12--|
D|-----14-------14-------------14----14----------14-----|
A|--15-------14-------12~-------------------------------|
E|------------------------------------------------------|

E|------------------------------------------|
B|------------------------------------------|
G|--------17-------17-------------12----14--|
D|-----14-------14-------------14----14-----|
A|--15-------14-------12~-------------------|
E|------------------------------------------|


Verse 1: 
E|----------------------------------------------------------|
B|----------------------------------------------------------|
G|--------17----19----17-------17-16-14---------------------|
D|-----14-------------------------------17-14-14h15p14------|
A|--15-------15----15----15-14-------------------------12~--|
E|----------------------------------------------------------|

E|----------------------------------------|
B|----------------------------------------|
G|--14-12---------------------------------|
D|--------14-12h14-14h15-15-14--14--------|
A|---------------------------------12-14--|
E|----------------------------------------|

E|----------------------------------------------------------|
B|----------------------------------------------------------|
G|--------17----19----17-------17-16-14---------------------|
D|-----14-------------------------------17-14-14h15p14------|
A|--15-------15----15----15-14-------------------------12~--|
E|----------------------------------------------------------|

E|----------------------------------------|
B|----------------------------------------|
G|--14-12---------------------------------|
D|--------14-12h14-14h15-15-14--14--------|
A|---------------------------------12-14--|
E|----------------------------------------|

Chorus: 
E|------------------------------------------------------|
B|------------------------------------------------------|
G|--------17-------17-------------12----12h14p12----12--|
D|-----14-------14-------------14----14----------14-----|
A|--15-------14-------12~-------------------------------|
E|------------------------------------------------------|

E|------------------------------------------|
B|------------------------------------------|
G|--------17-------17-------------12----14--|
D|-----14-------14-------------14----14-----|
A|--15-------14-------12~-------------------|
E|------------------------------------------|

E|------------------------------------------------------|
B|------------------------------------------------------|
G|--------17-------17-------------12----12h14p12----12--|
D|-----14-------14-------------14----14----------14-----|
A|--15-------14-------12~-------------------------------|
E|------------------------------------------------------|

E|------------------------------------------|
B|------------------------------------------|
G|--------17-------17-------------12----14--|
D|-----14-------14-------------14----14-----|
A|--15-------14-------12~-------------------|
E|------------------------------------------|


Verse 2: 
E|----------------------------------------------------------|
B|----------------------------------------------------------|
G|--------17----19----17-------17-16-14---------------------|
D|-----14-------------------------------17-14-14h15p14------|
A|--15-------15----15----15-14-------------------------12~--|
E|----------------------------------------------------------|

E|----------------------------------------|
B|----------------------------------------|
G|--14-12---------------------------------|
D|--------14-12h14-14h15-15-14--14--------|
A|---------------------------------12-14--|
E|----------------------------------------|

E|----------------------------------------------------------|
B|----------------------------------------------------------|
G|--------17----19----17-------17-16-14---------------------|
D|-----14-------------------------------17-14-14h15p14------|
A|--15-------15----15----15-14-------------------------12~--|
E|----------------------------------------------------------|

E|----------------------------------------|
B|----------------------------------------|
G|--14-12---------------------------------|
D|--------14-12h14-14h15-15-14--14--------|
A|---------------------------------12-14--|
E|----------------------------------------|

Outro:
E|-------------------------|
B|-------------------------|
G|--------17-------17------|
D|-----14-------14---------|
A|--15-------14-------12~--|
E|-------------------------|

E|---------------------------------------------------|
B|---------------------------------------------------|
G|--------17-------17----------14-12-----------------|
D|-----14-------14-------------------14-12/14-14/15--|
A|--15-------14-------12~----------------------------|
E|---------------------------------------------------|

E|------------------------------------------|
B|------------------------------------------|
G|--------17-------17----------17--12--16~--|
D|-----14-------14-------------14--12--14~--|
A|--15-------14-------12~--------------0~~--|
E|------------------------------------------|
Related for Coda tab